Oops, an error
Loading. Please wait.

Just A Feeling Chords

845 views 1 this week
1 commentread comment
1 2 3 4 5
2 more votes to show rating
add to favorites
launch autoscroll
font size
0
reset
transpose
0
reset
display chords
guitar tuner
×
Best way to learn
"Just A Feeling"
Autoscroll
slow
fast
+/-
esc
set tempo
stop
#----------------------------------PLEASE NOTE---------------------------------#
#This file is the author's own work and represents their interpretation of the #
#song. You may only use this file for private study, scholarship, or research. #
#------------------------------------------------------------------------------##
From: SkunX42@aol.com
Date: Thu, 28 Dec 1995 22:34:34 -0500
Subject: Just a Feeling by Rancid

Song:  Just a Feeling
Band:  Rancid
Album(7"):  Radio, Radio, Radio
also found on Fat Music for Fat People (punk compilation on Fat Wreck Cho=
rds)
posted by:  SkunX42@aol.com
=0D

CHORDS
=0D
    G     C      D
|-----------------------|
|-----------------------|
|---------5------7------|
|---5-----5------7------|
|---5-----3------5------|
|---3-------------------|
=0D

Intro:  C, G, C, G, C, G, C, G, C(hold until Verse begins)
=0D
Verses:  G, C
=0D
PreChorus:  G, C, D
=0D
Chorus:  C, D, G
=0D
improvise for the solo, i think it's played somewhere around
the 8th-10th frets on the 2nd and 3rd strings
=0D
sorry i didn't include lyrics with this, they're not on the CD (Fat Music=
=2E..)
and i tried to figure 'em out but i couldn't.  well, at least i got the
prechorus:
=0D
on and on  just a feeling
don't seem right just a feeling
it don't seem right
no it don't seem right
=0D
send all questions, comments, punk tabs, and\or requests (i'll do my best=
)
to me at:  SkunX42@aol.com
=0D
OI OI OI!
Suggest correction
Give kudos to tab author, rate the tab!
1 2 3 4 5
comments
print report bad tab
1 comment total.
0 reply
dahui 10 Mar 08, 2006 07:20 AM

This isn't even close.

The chords are actually E, A, B, at least, they are on the Fat Wreck Compilation version.

E
-------------------------
-------------------------
-------------------------
--2----------------------
--2----------------------
--0----------------------

A
-------------------------
-------------------------
--2----------------------
--2----------------------
--0----------------------
-------------------------

B
-------------------------
-------------------------
--4----------------------
--4----------------------
--2----------------------
-------------------------

guest
You may want to rate the tab now too:
select rating
Wanna post a correction for this tab? Suggest correction