Oops, an error
Loading. Please wait.

Maxwell Murder Bass Tab

version 5
version 5
1,240 views 6 this week
no commentswrite comment
1 2 3 4 5
please rate
add to favorites
launch autoscroll
font size
0
reset
guitar tuner
Autoscroll
slow
fast
+/-
esc
set tempo
stop
Help us to improve Ultimate-Guitar.com Take our survey!
×
Author
4/4 time
Pace- 154 (Fast, w/ double-time feel)
Tab difficulty- Beginner-intermediate

INTRO (0:10; 0:35)
G----------------------------------------------------------------------|
D----------------------------------------------------------------------|
A-0-3-4-5/-------3-----------------------------3--------2--3--4--------|
E---------------------3-0-3-4--5/--------------------3-----------------|

VERSE (0:17; 0:41)
G-------------------------------------------------------------------|
D-----------------2-3-4--5-3--2---------------------------------0-2-|
A-555555555555--3----------------3---555555555555--3-2-0-2----2-----|
E-----------------------------------------------------------3-------|

CHORUS (0:22; 0:47; 1:12)
G----------------------------------------------------------------------------|
D-3-2-3--2-3-2--3--2-/7-5-4-----4-5-7----3-2-3--2-3-2--3--2-/7-5--4----------|
A---------------------------7-5--------------------------------------7-5--3-2|
E----------------------------------------------------------------------------|

G---------------------------------------------------------------------|
D-3-2-3--2-3-2--3-/5-7-5-4--------------------------------------------|
A--------------------------7--555500-55555------------------0000003---|
E-------------------------------------------55555-3-/-111111----------|

SOLO (1:00) (The best solo you will find on the internet, I promise you)
G-5---5-----5--5-----5--5-----5--5--5-------------------------------------|
D---7---6h7------6h7------6h7---------6-5-5-4-4-5/-7--6/-5/-4/-3-5--------|
A-------------------------------------------------------------------0-5-x-|
E-------------------------------------------------------------------------|

G----------------5-6-7-----------------------------------------/9----|
D-----3-3/-5-6-7-------7-6-5/-4/-3--5-4-4-3-0------------------------|
A-5-5-----------------------------------------4-3-4--3-3-4-5---------|
E--------------------------------------------------------------------|

G------------------10-10/12--10/13-15-12--12/11--12-11-12-11-------|
D-0--0-0--12p10-10----10/12---------------------------------12-x-10|
A------------------------------------------------------------------|
E------------------------------------------------------------------|

G:--------------------19-19---17----16-x-15--14-14--12-12-11-11-10---9---7--5--0---|
D:-11-12-12-10-12--0--------0-----0----------------------------------------------0-|
A:---------------------------------------------------------------------------------|
E:---------------------------------------------------------------------------------|

END NOTE

G:----|
D:----|
A:5-/-|
E:----|
Suggest correction
Give kudos to tab author, rate the tab!
1 2 3 4 5
comments
print report bad tab
guest
You may want to rate the tab now too:
select rating
Please do not post tabs as comments. Select "correction" instead!