Oops, an error
Loading. Please wait.
We have an official Maxwell Murder tab made by UG professional guitarists. Check out the tab »
×
by Rancid
28,404 views 1 this week
4 commentsread comments
1 2 3 4 5
x 5
add to favorites
×
Save as Personal and add changes to this tab that will be seen only by you. Learn more ›
×
You can save this tab as Personal to edit and correct it or add notes. All changes will be seen only by you. Learn more »
launch autoscroll
font size
0
reset
guitar tuner
edit
Autoscroll
slow
fast
+/-
esc
set tempo
stop
Author
Difficulty
Maxwell murder
by rancid
this is one of the hardest of them, but i am sure is almost 100% correct. ive been 
this for almost a month. the solo is really hard to play it fast so dont try at first. the 
is played REALLY fast so if you try to play along with it dont be surprised if you get lost.

h=hammer on
p=pull off
/=slide down
\=slide up

verse

G|--------------------------------------------------|
D|--------------------------------------------------|
A|--0--3--4--5---3----0--3--4--5---3-----2--3--4----|
E|-------------------3-----------------3------------|
pre chorus

G|---------------------------------------------------------------------------|
D|---------------------2-3-4-5-3-2--------------------------------0--2-------|
A|-555555555555---3------------3--555555555555--3-2-0--2---2-----------------|
E|--------------------------------------------------------------3------------|
Chorus

G|----------------------------------------------------------------------|
D|-32-32-32-32--7-5-4------4--5--7--32-32-32-32--7-5-4------------------|
A|--------------------7-5--------------------------------7-5--3-(3)-2---|
E|----------------------------------------------------------------------|
chorus (cont)

G|--------------------------------------------------------------------|
D|-32-32-32-3--5--7-5-4-----------------------------------------------|
A|------------------------7-5555-00-55555------------------0000003----|
E|------------------------------------------55555-3/111111------------|

G|--------------------------------------------------|
D|--------------------------------------------------|
A|--0--3--4--5---3----0--3--4--5---3-----2--3--4----|
E|-------------------3-----------------3------------|
pre chorus

G|---------------------------------------------------------------------------|
D|---------------------2-3-4-5-3-2--------------------------------0--2-------|
A|-555555555555---3------------3--555555555555--3-2-0--2---2-----------------|
E|--------------------------------------------------------------3------------|
Chorus

G|----------------------------------------------------------------------|
D|-32-32-32-32--7-5-4------4--5--7--32-32-32-32--7-5-4------------------|
A|--------------------7-5--------------------------------7-5--3-(3)-2---|
E|----------------------------------------------------------------------|
chorus (cont)

G|--------------------------------------------------------------------|
D|-32-32-32-3--5--7-5-4-----------------------------------------------|
A|------------------------7-5555-00-55555------------------0000003----|
E|------------------------------------------55555-3/111111------------|

solo

G|-5-5---5-5---5-5---5--5-------------------------------5675------------|
D|--7-6h7---6h7---6h7----655335\76/5/4/3-5------33\5-67----765/4/3------|
A|------------------------------------------05X-55----------------------|
E|----------------------------------------------------------------------|

G|-----------------------------------10-10\12-10\13-15-12-12/11-----|
D|-5443-0----------\9--0-00-12p10-10---10\12------------------------|
A|--------4340-3445-------------------------------------------------|
E|------------------------------------------------------------------|

G|-12-11-12-11------------------------19-19-17-16-X-15-14-14-12-12-11-10-97-50-------|
D|------------12-X-10-11-12-12-10-12-0----0--0----------------------------------0----|
A|-----------------------------------------------------------------------------------|
E|-----------------------------------------------------------------------------------|

Chorus

G|----------------------------------------------------------------------|
D|-32-32-32-32--7-5-4------4--5--7--32-32-32-32--7-5-4------------------|
A|--------------------7-5--------------------------------7-5--3-(3)-2---|
E|----------------------------------------------------------------------|
chorus (cont)

G|--------------------------------------------------------------------|
D|-32-32-32-3--5--7-5-4-----------------------------------------------|
A|------------------------7-5555-00-55555------------------0000003----|
E|------------------------------------------55555-3/111111------------|
Suggest correction
Creating personal tab
Creating personal tab
You can edit any tab online and save it as your Personal.

You can edit, replace or remove any tab part or add personal notes – all changes will be seen only by you.

Personal tabs can be accessed anytime from any device, even offline.
Learn more »
comments
print report bad tab
4 comments total. Showing first comments.
0 reply
ibanezbass 36 Aug 10, 2008 01:11 PM

G|--------------------------------------------------------------------
D|-32-32-32-32--7-5-4------4--5--7--32-32-32-32--7-5-4---------------|
A|--------------------7-5--------------------------------7-5--3-(3)-2---|
E|----------------------------------------------------------------------|

i dont think my bass has 32 frets! just watch that bit...

0 reply
zeppelin42 60 Dec 04, 2008 02:46 PM

ibanezbass he means 3rd fret then 2nd fret not 32nd fret.

Great tab by the way.

+1 reply
devonparrish 10 Sep 01, 2009 12:59 PM

as my fingers fall off...

guest
You may want to rate the tab now too:
select rating
Wanna post a correction for this tab? Suggest correction