Oops, an error
Loading. Please wait.

Radio bass

version 2
version 2

Whole song

Interactive

by Rancid
2,108 views 6 this week
1 commentread comment
1 2 3 4 5
2 more votes to show rating
add to favorites
×
Save as Personal and add changes to this tab that will be seen only by you. Learn more ›
×
You can save this tab as Personal to edit and correct it or add notes. All changes will be seen only by you. Learn more »
launch autoscroll
font size
0
reset
guitar tuner
edit
Autoscroll
slow
fast
+/-
esc
set tempo
stop
Author
Difficulty
Rancid-Radio Tab
Not 100% right but its closer then any of the other tabs that are on here.
Stanard tuning E,A,D,G
And its played quite fast . . good luck!

Interlude x1
|----------------------------------------------------------------------------------7--5----------|
|------------------------------------------------------------------------------------------7--5--|
|-----0--2--0--3--0--4--0----2--0--3--0--4--0----2--0--3--0--4--0-------------------7--6---------|
|------------------------------------------------------------------------------------------------|


Verse x4                                                     1st and 3rd time    2nd 
- - Play fast
|--------------------------------------------------------------|----------------------------|--3-5----|
|--------------------------------------------------------------|---3-3-3-5---------------|-------3-5--|
|----5--5--5-0-0-------------5-5-5-5------2--3-3--5--|----------------------------|-------------------|
|---------------------7--7--7--------------3----------------|----------------------------|------------|

Pre chrous x1

|--------5---------------5---------------5--7--8--7-5-------------------------|
|----7------5-5-5--7------5-5-5--7------------------7-5-----------------------|
|---------------------------------------------------------------7-6-5---------|
|-----------------------------------------------------------------------------|

Chorus x2

|----7-7-7-6-5-4--4-4-7-7-7-7--------------------------------------------------|
|--------------------------------------5--5--5-5-7-----------------------------|
|------------------------------------------------------5--5--5-0-0-------------|
|------------------------------------------------------------------------------|

|----------------------------------------------------------------|
|----------------------------------------------------------------|
|----5--5--5-0-0-------------5-5-5-5------2--3-3--5--------------|
|---------------------7--7--7--------------3---------------------|

Then - -
Interlude x1
Verse x4
Pre chorus x1
Chorus x2
Interlude x1

Bridge

|---------------------------------------------------------------------------------------------------------------|
|-------------------7-7--7--7-----------------7-7--7--7-----------------7-7--7--7-------------------------------|
|----5--5--5--5----------------5--5--5--5----------------5--5--5--5---------------5--5--5--5--0--2--0--3--0--4--|
|---------------------------------------------------------------------------------------------------------------|

Bridge continued

|----------------------------------------------------------------------------------------------------------------------------------|
|-----------7-------------------------------------7-------------------------------------7--------------------------------------7---|
|----5--5----0-0--2--0--3--0--4--0--5--5----0-0--2--0--3--0--4--0--5--5-----0-0--2--0--3--0--4--0--5--5-----0-0--2--0--3--0--4--0--|
|----------------------------------------------------------------------------------------------------------------------------------|

Then - -
Pre chorus x1
Chorus x2
Interlude x1

Outro
1st time only
|----7-5---------|--------------------------------------------------------------------------------------------------------------------------------------5-3-----------------------------------|
|---------7-5-0-|-----------------------------------------------------------------------------------3--3-3-3-5-------------------------------------------5-3-0--------------------------------|
|-----------------|--5-3-2-0-2-3-2-0----2-3-4-5--5-0-0--5-3-2-0-2-3-2-0---2-3-4-5----------------5-3-2-0-2-3-2-0----2-3-4-5---------------5-3-2-0-2-3-2-0----2-3-4-5--5-5-5-0-----------------|
|-----------------|------------------------3--------------------------------------------3-------------------------------------------------3------------------------------------------------3--|

End on

|----------------|
|----------------|
|------5---------|
|----------------|

Thats it!! Have fun

Tabbed by Rob any problems email me robert.wood@hotmail.co.uk

            
            
Suggest correction
Creating personal tab
Creating personal tab
You can edit any tab online and save it as your Personal.

You can edit, replace or remove any tab part or add personal notes – all changes will be seen only by you.

Personal tabs can be accessed anytime from any device, even offline.
Learn more »
Give kudos to tab author, rate the tab!
1 2 3 4 5
comments
print report bad tab
1 comment total.
0 reply
Chosenfro68 739 Dec 25, 2006 02:55 PM

Not accurate, hard to read, and just wrong..

guest
You may want to rate the tab now too:
select rating
Wanna post a correction for this tab? Suggest correction