Oops, an error
Loading. Please wait.

Sick Sick World bass

by Rancid
807 views 1 this week
1 commentread comment
1 2 3 4 5
2 more votes to show rating
add to favorites
×
Save as Personal and add changes to this tab that will be seen only by you. Learn more ›
×
You can save this tab as Personal to edit and correct it or add notes. All changes will be seen only by you. Learn more »
launch autoscroll
font size
0
reset
guitar tuner
edit
Autoscroll
slow
fast
+/-
esc
set tempo
stop
Difficulty
intermediate
- Rancid - Sick Sick World
- Tabbed by Pacu, bassist from a brazilian punk rock band that is called PunkAss.
- The song itelf is pretty right, but some variations that Matt does i just tabbed by 
way i thought it was. So, improvise too!


Tunning: Standart (EADG)


Intro
G---------------------------|
D-----------6h8-6-----------|
A-6-----6-8-------8-6-------|
E---8-8--------------8-6-8~-|

Verso
G-----------------------------------------------------------------|
D-----------------------------------------------------------------|
A-----111-----310------111-----310------111-----310—11111111-3333-|
E-111-----111------111-----111------111-----111-------------------|

Refrao
G----------------------------------------------------------|
D---1-2-33333333-2-1---------------------------------------|
A-3------------------3--11111111-3-------------1-2-3333333-|
E-----------------------------------11111111-3-------------|

G---------------------------------------------|
D---------------------------------------------|
A-3-2-1-------------1111111-3-------3333------|
E-------11111111-3-------------1111------1111-|

Verso
G-----------------------------------------------------------------|
D-----------------------------------------------------------------|
A-----111-----310------111-----310------111-----310—11111111-3333-|
E-111-----111------111-----111------111-----111-------------------|


Refrao
G----------------------------------------------------------|
D---1-2-33333333-2-1---------------------------------------|
A-3------------------3--11111111-3-------------1-2-3333333-|
E-----------------------------------11111111-3-------------|

G---------------------------------------------|
D---------------------------------------------|
A-3-2-1-------------1111111-3-------3333------|
E-------11111111-3-------------1111------1111-|

Bridge
             (Ten, Eleven, Twelve)
G-------------1010101112~-10----------|
D----------------------------12-10----|
A-11111111-------------------------12-|
E----------1--------------------------|

G---------------12-10----------|
D---------------------12-10----|
A-11111111----8-------------12-|
E----------1-------------------|

G------------8h10----8------88991010-171716161515--------------------------|
D-----------------11---9--10----------------------171716161515-------------|
A-11111111-----------------------------------------------------171716161515|
E----------1---------------------------------------------------------------|

Chorus
G----------------------------------------------------|
D-33333333-2-1---------------------------------------|
A--------------3--11111111-3-------------1-2-3333333-|
E-----------------------------11111111-3-------------|

G---------------------------------------------|
D---------------------------------------------|
A-3-2-1-------------1111111-3-------3333------|
E-------11111111-3-------------1111------1111-|

Ending
G-----------------------------|
D-----------------------------|
A------3333------------3333---|
E-1111------1111--1111------1-|

________
Pacu.
Suggest correction
Creating personal tab
Creating personal tab
You can edit any tab online and save it as your Personal.

You can edit, replace or remove any tab part or add personal notes – all changes will be seen only by you.

Personal tabs can be accessed anytime from any device, even offline.
Learn more »
Give kudos to tab author, rate the tab!
1 2 3 4 5
comments
print report bad tab
1 comment total.
+1 reply
pacu 2,540 May 14, 2008 09:33 AM

Myabe playing this on the bridge you can get a better sound...

____________

Bridge ["**** you"]
(ten-twelve-eleven)
G|-----------10101010121211111010-------|
D|-------------------------------111110-|
A|-11111111-----------------------------|
E|---------1----------------------------|

G|-----------10-11-10/8-------|
D|----------------------12-11-|
A|-11111111-------------------|
E|---------1------------------|
(this part im sure its not so right, but if playing this fast it sounds alike matt's line i guess)
G|-----------10h11-8-10----------1011121110---191817-17-------------------------------|
D|----------------------11--10h12----------12------19--191817191817--17---------------|
A|-11111111--------------------------------------------------------19--191817--17-----|
E|---------1-----------------------------------------------------------------19--1917-|

guest
Wanna post a correction for this tab? Suggest correction