Oops, an error
Loading. Please wait.

Start Now Bass Tab

version 1
version 1

Whole song

Interactive

1,493 views 1 this week
no commentswrite comment
1 2 3 4 5
excellent!
x 3
add to favorites
launch autoscroll
font size
0
reset
guitar tuner
Autoscroll
slow
fast
+/-
esc
set tempo
stop
Help us to improve Ultimate-Guitar.com Take our survey!
×
Author
Difficulty
advanced
This is a really cool song, one of my favorites off of indestructable

Intro
------------|
------------|
-0-4-0------|
------------|

Verse
------------------------------------------------------------------------|
------------------------------------------------------------------------|
-4-444444----3-3-6-4-444444-----3-3-6-4-444444----3-3-6--------6-666666-|
---------4-44-4-------------4-44-4------------4-44-4----6-66666---------|

Pre-Chorus
--------8~----|
---3~~-8~-----|
-4~-----------|
--------------|

Chorus
-------------------------------------------|
----------------5-3-1-------0-0------3-3---|
------3-3-6--6-6------4-1-11-1-1-4-44-4-4--|
-4--4--4-----------------------------------|

Bridge
---8---6-8---8---6-8----8---6-8-------6-8----8---6-8---8---6-8----8---88--|
-----8---------8----------8-------66-8---------8---------8----------------|
-6---------6---------6----------66---------6---------6----------6---6-----|
--------------------------------------------------------------------------|

-8-6---------------|
-----8-6-----------|
---------8-6-------|
-------------8-6---|

Thats the whole song, The order of it comes natrually so there really isnt a need to put 
order down
Suggest correction
What's this?
You can suggest a correction to this tab. Community and Mods will review your correction and vote to approve or reject it.
comments
We did not receive enough feedback on this tab! Please rate:
print report bad tab
1 2 3 4 5
guest
You may want to rate the tab now too:
select rating
Please do not post tabs as comments. Select "correction" instead!