Oops, an error
Loading. Please wait.

Stickin In My Eye Bass Tab

5,443 views 6 this week
1 commentread comment
1 2 3 4 5
excellent!
x 3
add to favorites
launch autoscroll
font size
0
reset
guitar tuner
Autoscroll
slow
fast
+/-
esc
set tempo
stop
Help us to improve Ultimate-Guitar.com Take our survey!
×
Author
Difficulty
advanced
This is a GREAT cover of NOFX's classic Song Stickin in my Eye


Intro
-12-1212x1212/11-11xx12-1212-9-999/8-\-12-1212x1212/11-11xx12-1212-9-9999/8-|
-14-1414x1212/10-10xx10-1010-9-999/9-\-12-1212x1212-12-12xx10-1010-9-9999-8-|
-------------------------------------\--------------------------------------|
-------------------------------------\--------------------------------------|

----12/14\12-----14------------12-109-99-8/9/8/9--|
-14----------1412---12/14\12-10-----------------9-|
--------------------------------------------------|
--------------------------------------------------|

-12-1212x1212/11-11xx12-1212-9-999/8~-|
-14-1414x1212/10-10xx10-1010-9-999/9~-|
--------------------------------------|
--------------------------------------|

---------------------------------------------------------------|
---------------------------------------------------------------|
-7-777777777-5-555555555-3-333333333-2-222222222222222222------|
---------------------------------------------------------------|

---------------------------------------------------------------|
---------------------------------------------------------------|
-7-777777777-5-555555555-3-333333333-2-222222222222222222------|
---------------------------------------------------------------|

Verse
-----------------------------|
-----------------------------|
-7-7777-5-5555-3-3333-2-2222-|
-----------------------------|

Chorus
----------------------------------------------------------------------|
------------------------------------------------------------12--12----|
-7-777777777777-101010101010101010-1212121212121212-14141414--14--14--|
----------------------------------------------------------------------|

Bridge
------------------------------------------------------|
------------------------------------------------------|
-7-7777777-10-10101010101010-12-12121212121212--------|
-----------------------------------------------8#-10#-|

Solo
-----------------------------------------------------------------------------|
-10--10/12/10/12/10/12-1414141414-12-1414141414-12-1414141414-12-14141414-12-|
---12------------------------------------------------------------------------|
-----------------------------------------------------------------------------|

-1414-12----------------------|
--------14-1212---------------|
----------------14-12-10------|
-------------------------1212-|

Order
Intro
Verse
Chorus
Bridge
Solo
Verse
Chorus
Chorus (End on Tenth Fret on E String
Suggest correction
Give kudos to tab author, rate the tab!
1 2 3 4 5
comments
print report bad tab
1 comment total.
0 reply
ReynAldoG94 10 wrote on June 6 2011, 03:03 pm

For the weird but awesome intro, i think it goes like this


e |----14-1211----14-------12-98--8-8h9p8h9p8-
B |1412-------1412---121110-----11-----------9
G |-------------------------------------------
D |-------------------------------------------
A |-------------------------------------------
E |-------------------------------------------

guest
You may want to rate the tab now too:
select rating
Wanna post a correction for this tab? Suggest correction