Oops, an error
Loading. Please wait.

Tattoo Bass Tab

1,668 views 1 this week
no commentswrite comment
1 2 3 4 5
please rate
add to favorites
launch autoscroll
font size
0
reset
guitar tuner
Autoscroll
slow
fast
+/-
esc
set tempo
stop
Help us to improve Ultimate-Guitar.com Take our survey!
×
Author
Difficulty
advanced
Intro
--------------------------------------------|
-4/5555555-4/5555555-4/5555555-4/5555555----|
--------------------------------------------|    Play This Part About 4 Times
--------------------------------------------|

Then Play

-8-88888-7-77777-8-88-7-77-5-55-3-3-|
------------------------------------|
------------------------------------|
------------------------------------|

Verse
------------------------------|
------------------------------|
---------------------66-------|
-3-3333333-3-3333333---66-5-3-|

Chorus
-----------------------------------------------|
-1-11111111/3----------------------------------|
-------------1-111111111-----------1-111111111-|
------------------------1-111111111------------|

Bass Solo
---------------335-77-5-3--------|
-----------33-5----------5-3-----|
-------3-55-----------------53---|
-3-33-5-----------------------53-|

Bridge
------------------------------------------------|
------------------------------------------------|
--------------6-66666666------------------------|
--3-333333333-----------6-66666666-8-888888888--|

Outro
--------------------------------------------|
--------------------------------------------|
-----------1-11111111-----------1-1111111---|
-1-1111111------------1-1111111-----------3-|

Order

Intro
Verse
Chorus
Verse
Chorus
Bass Solo
Bridge (X2)
Intro
Chorus
Outro
Suggest correction
Give kudos to tab author, rate the tab!
1 2 3 4 5
comments
print report bad tab
guest
You may want to rate the tab now too:
select rating
Please do not post tabs as comments. Select "correction" instead!