Oops, an error
Loading. Please wait.

Time Bomb Bass Tab

version 1
version 1
7,749 views 9 this week
3 commentsread comments
1 2 3 4 5
worth learning
x 8
add to favorites
launch autoscroll
font size
0
reset
guitar tuner
Tab Pro tools
  • play this tab
  • loop segment
  • change instrument
  • show fretboard
  • metronome
×
Best way to learn
"Time Bomb"
Autoscroll
slow
fast
+/-
esc
set tempo
stop
Song Title: Time Bomb
Artist: Rancid
----------------------------------------------

                                            Antonio Musco                
"Time Bomb" by Rancid from "...And Out Come the Wolves" (1995) 



Intro-

G -----------------------------
D 9-9-9----------9-9-9---------
A ---------7-7-7----------7-7-7
E -----------------------------
           
Verse-

G ------------11 9 11 9----------
D 9-11-12----------------12-11-12
A -------------------------------
E -------------------------------

G -------------------------6-7
D 9-11-12-11----6-7-----------
A -----------------7----------
E ----------------------------

G -----------11-9-11-9-----------
D 9-11-12----------------12-11-12
A -------------------------------
E -------------------------------

G -------------------------6-7-
D 9-11-12-11----6-9------------
A -----------------7-----------
E -----------------------------

Chorus-

G ---6-9-6-7-6----------------------------
D 7---------------9-7---5-6---------------
A ----------------------7------9-7-5-4-5-7
E ----------------------------------------

Repeat

Keyboard solo-

G -------------------------------
D -------------------------------
A ---4-7-5-4-5-6-7-5-4-7-5-4-5---
E 5 5----------------------------

G ----------------------------
D ----------------------------
A ------4-7-5-4-5-6----7----5-
E 5-5-------------------------


                                       Antonio Musco 


Submitted by:  Antonio Musco (a.musco@tau.it)
comments
print report bad tab
3 comments total.
0 reply
jello77 wrote on December 8 2002, 12:00 am

this is how it goes. first of all its down an octive and second, there are a few more notes and different notes:

verse:
-------------------------------------
-----0-4-2-4-2-0---------------------
-2-4-------------4-2-4-5-4-------0---
---------------------------0-2-4-----

chorus:
-------------------------------------
-------------------6-4---------------
---4-7-4-5-4-5-6-7-----7-5-4-5-4-----
-5-----------------------------------

that keyboard solo part is right. that is, i think, also the chorus.

matt freeman is the greatest basist, isn't he

0 reply
jello77 wrote on December 8 2002, 12:00 am

somehow my correction got screwed up. it got compressed & doesnt line up correctly now but u get the idea

0 reply
LoDennis wrote on November 24 2007, 07:54 am

...hmm... this tab is totally wrong. sorry...

I want to post or [tab]
guest
You may want to rate the tab now too:
select rating
Please do not post tabs as comments. Select "correction" instead!