Oops, an error
Loading. Please wait.

Time Bomb Bass Tab

version 4
version 4
40,127 views 48 this week
1 commentread comment
1 2 3 4 5
x 6
add to favorites
launch autoscroll
font size
0
reset
guitar tuner
Autoscroll
slow
fast
+/-
esc
set tempo
stop
Help us to improve Ultimate-Guitar.com Take our survey!
×
Author
Difficulty
novice
[Intro]
G|-----------------|-----------------|
D|-----------------|-----------------|
A|-----------------|------777--------|
E|7-7-7-000--------|7-7-7------------|

[Verse]
G|-----------------|-----------------|
D|------4-2-4-20---|-----------------|
A|2-4-5----------40|2-4-5-4----------| x2
E|-----------------|--------0-2-4-5--|

[Chorus]
G|-----------------|-----------------|-----------------|-----------------|
D|-----------------|------------55-44|-----------------|-----------------|
A|---44-77-4-7-55--|44-55-66-77------|77-55-44-55-77---|-----------------| x2
E|55---------------|-----------------|-----------------|-----------------|

[Verse]
G|-----------------|-----------------|
D|------4-2-4-20---|-----------------|
A|2-4-5----------40|2-4-5-4----------| x2
E|-----------------|--------0-2-4-5--|

[Chorus]
G|-----------------|-----------------|-----------------|-----------------|
D|-----------------|------------55-44|-----------------|-----------------|
A|---44-77-4-7-55--|44-55-66-77------|77-55-44-55-77---|-----------------| x2
E|55---------------|-----------------|-----------------|-----------------|

[Verse]
G|-----------------|-----------------|
D|------4-2-4-20---|-----------------|
A|2-4-5----------40|2-4-5-4----------| x2
E|-----------------|--------0-2-4-5--|

[Chorus]
G|-----------------|-----------------|-----------------|-----------------|
D|-----------------|------------55-44|-----------------|-----------------|
A|---44-77-4-7-55--|44-55-66-77------|77-55-44-55-77---|-----------------| x2
E|55---------------|-----------------|-----------------|-----------------|

[Bridge]
G|-----------------|
D|-----------------|
A|---------77777777|
E|00000000---------|

[Guitar Solo]
G|-----------------|-----------------|
D|------4-2-4-20---|-----------------|
A|2-4-5----------40|2-4-5-4----------| x2
E|-----------------|--------0-2-4-5--|

[Interlude]
G|-----------------|-----------------|-----------------|-----------------|
D|-----------------|-----------------|-----------------|-----------------|
A|-----44-4-77-7---|754-55-5-44-4----|------------44-4-|77-7-754-7--5----|
E|55-5-------------|--------------44-|4-00-0-55-5------|-----------------|

[Verse]
G|-----------------|-----------------|
D|------4-2-4-20---|-----------------|
A|2-4-5----------40|2-4-5-4----------| x2
E|-----------------|--------0-2-4-5--|

[Chorus]
G|-----------------|-----------------|-----------------|-----------------|
D|-----------------|------------55-44|-----------------|-----------------|
A|---44-77-4-7-55--|44-55-66-77------|77-55-44-55-77---|-----------------| x4
E|55---------------|-----------------|-----------------|-----------------|

[Outro]
G|-----------------|-----------------|
D|-----------------|-----------------|
A|---------77777777|-----------------|
E|00000000---------|5--5--5----------|
Suggest correction
comments
print report bad tab
1 comment total.
+1 reply
TOMX_TMX 10 Jun 18, 2009 01:52 PM

T KEDO PRO WE T LA RIFAS xD

guest
You may want to rate the tab now too:
select rating
Wanna post a correction for this tab? Suggest correction