Oops, an error
Loading. Please wait.

Time Bomb Bass Tab

version 5
version 5
3,848 views 9 this week
1 commentread comment
1 2 3 4 5
please rate
add to favorites
launch autoscroll
font size
0
reset
guitar tuner
Tab Pro tools
  • play this tab
  • loop segment
  • change instrument
  • show fretboard
  • metronome
×
Best way to learn
"Time Bomb"
Autoscroll
slow
fast
+/-
esc
set tempo
stop
Contributor
- Rancid - Time Bomb
- Tabbed by: Pacu, bassist from a brazilian punk rock banda called PunkAss.

__________
Intro
G|------------------|----|
D|--------------222-|----|
A|-222------222-----|-1x-|
E|-----000----------|----|

Verse [2x]
G|------------------|----|
D|-------4-2-4-2----|----|
A|-2-4-5---------54-|-1x-|
E|------------------|----|

G|-----------------|----|
D|-----------------|----|
A|-2-4-5-4---------|-1x-|
E|---------0-2-3-2-|----|

Chorus
G|---------------------------------|----|
D|-------------------5-4-----------|----|
A|---4-7-4-5-4-5-5-7-----7-5-4-5-4-|-2x-|
E|-5-------------------------------|----|

Verse [2x]
Chorus
Verse [2x]
Chorus

Bridge I
G|-------------------|----|
D|-------------------|----|
A|-------------------|-1x-|
E|-00000000-00000000-|----|

Guitar Solo [2x]
G|------------------|----|
D|-------4-2-4-2----|----|
A|-2-4-5---------54-|-1x-|
E|------------------|----|

G|-----------------|----|
D|-----------------|----|
A|-2-4-5-4---------|-1x-|
E|---------0-2-3-2-|----|

Bridge II
G|-------------------------|----|
D|-------------------------|----|
A|----47-5454-7-75-54-4----|-1x-|
E|-5-5-----------------7-7-|----|

G|----------------|----|
D|----------------|----|
A|----454-457~-5~-|-1x-|
E|-5-5---5--------|----|

Verse [2x]
Chorus [2x]
Bridge I 

Ending
G|---|----|
D|---|----|
A|-2-|-1x-|
E|---|----|
comments
We did not receive enough feedback on this tab! Please rate:
print report bad tab
1 2 3 4 5
1 comment total.
0 reply
2ToneJake wrote on November 29 2010, 07:15 pm

excellent tab, but it ends on an A note

either:

G|---|
D|---|
A|-0-|
E|---|

G|---|
D|---|
A|---|
E|-5-|

I want to post or [tab]
guest
You may want to rate the tab now too:
select rating
Please do not post tabs as comments. Select "correction" instead!