Oops, an error
Loading. Please wait.

Travis Bickle Bass Tab

version 1
version 1

Whole song

Interactive

914 views 1 this week
no commentswrite comment
1 2 3 4 5
please rate
add to favorites
launch autoscroll
font size
0
reset
guitar tuner
Autoscroll
slow
fast
+/-
esc
set tempo
stop
Help us to improve Ultimate-Guitar.com Take our survey!
×
Author
Difficulty
advanced
Email: Chosenfro68@yahoo.com
Tabber: Jamie McDonald

Intro
---------(4)--------(4)--|
-------4-----------4-----|
-5-4-2-------5-4-2-------|
-------------------------|

Bridge
-------------------|
-------------------|
-2-22-----2-3-4-5--|
-----22-3----------|

Verse
-------------------------------------|
-----------------------------5-4-2-0-|
-2-222222----------------------------|
----------2-222222-3-3333333---------|

Chorus
-----------------------------4-2----------------|
----------------4-2-2/4-5-55----4---------------|
-2-2-222/4------------------------5-0/5-5-0-00~-|
-----------2-22---------------------------------|

Solo thingy
-------------------------------------------------------------|
-------7------6-666-666-666666-------6------4-444-444-444-4--|
-5-7-8--8-7-5------------------4-6-7--7-6-4------------------|
-------------------------------------------------------------|

----------------------------------------------------------------|
-------7------6-666-666-666666-7-9-10-9-7-5-7-5-4-6-7-6-4-2-0---|
-5-7-8--8-7-5-------------------------------------------------4-|
----------------------------------------------------------------|

Order is really simple..good luck with it
Suggest correction
Give kudos to tab author, rate the tab!
1 2 3 4 5
comments
print report bad tab
guest
You may want to rate the tab now too:
select rating
Wanna post a correction for this tab? Suggest correction