Oops, an error
Loading. Please wait.

Up To No Good Bass Tab

5,315 views 6 this week
no commentswrite comment
1 2 3 4 5
1 last vote to show rating
add to favorites
launch autoscroll
font size
0
reset
guitar tuner
Autoscroll
slow
fast
+/-
esc
set tempo
stop
Help us to improve Ultimate-Guitar.com Take our survey!
×
Author
-------------------------------------------------------------------------
TAB by 123DTV                123dtv@web.de
-------------------------------------------------------------------------


The song consists of 5 parts: the intro(which is just one note actually), verse, 
chorus and the break part.
It's about 95% right, i did not consider every single variation, but mainly it is right.


Intro
Verse
Pre-Chorus
Chorus
Verse
Pre-Chorus
Chorus
Break-Part
Organ Solo (verse+Pre-Chorus)
Verse
Pre-Chorus
Chorus
Chorus

-------------------------------------------------------------------------

Intro ( 1,2,3,4,...)

  D#

D|--------|--------|
G|--------|--------|
A|6~~-----|--------|  (slide down a litte after u hit the note)
E|--------|--------|

-------------------------------------------------------------------------

Verse

   D#               G#                D#               G#

D|----------------|----------------|----------------|----------------|
G|----------------|x-6-6-6-6-6-6-6-|8---------------|x-6-6-6-6-6-6-6-|
A|6--6--6---------|----------------|---6--6---------|----------------|
E|----------------|----------------|----------------|----------------|

   D#               G#                D#               G#

D|----------------|----------------|----------------|----------------|
G|8---------------|x-6-6-6-6-6-6-6-|8---------------|x-6-6-6-6-6-6-6-|
A|---6--6---------|----------------|---6--6---------|----------------|
E|----------------|----------------|----------------|----------------|

-------------------------------------------------------------------------

Pre-Chorus

  D#               C#               G#               D#

D|------------5---|6---5-----------|----------------|----5-----------|
G|----5---8-------|--------8---5---|6---5---6---8---|--------8---5---|
A|6---------------|----------------|----------------|6---------------|
E|----------------|----------------|----------------|----------------|

  D#               C#               G#               A#

D|------------5---|6---5-----------|----------------|----------------|
G|----5---8-------|--------8---5---|6---5---6---7---|8-8-8-8-8-8-6-5-|
A|6---------------|----------------|----------------|----------------|
E|----------------|----------------|----------------|----------------|


-------------------------------------------------------------------------

Chorus

   D#               G#               D#               G#

D|----------------|x-5-5-5-5-5-----|----------------|x-5-5-5-5-5-----|
G|--------5---8---|------------8-5-|--------5---8---|------------8-5-|
A|6---6-----------|----------------|6---6-----------|----------------|
E|----------------|----------------|----------------|----------------|

   D#               G#               D#

D|----------------|x-5-5-5-5-5-----|----------------|----------------|
G|--------5---8---|------------8-5-|----------------|----------------|
A|6---6-----------|----------------|6---------------|----------------|
E|----------------|----------------|----------------|----------------|


--------------------------------------------------------------------------

Break Part (now it switches into moll)


D|----------------|----------------|----------------|----------------|
G|----------------|----------------|----------------|----------------|
A|--------2---4---|6---4---2---4---|6---4---2---4---|6---4---2-------|
E|4---6-----------|----------------|----------------|------------6---|

D|----------------|----------------|----------------|----------------|
G|----------------|----------------|----------------|----------------|
A|--------2---4---|6---4---6---8---|9---8---6---4---|2---6---4---2---|
E|4---6-----------|----------------|----------------|----------------|

D|----------------|----------------|----------------|----------------|
G|----------------|----------------|----------------|----------------|
A|--------2---4---|6---4---2---4---|6---4---2---4---|6---4---2-------|
E|4---6-----------|----------------|----------------|------------6---|

D|----------------|----------------|----------------|----------------|
G|----------------|----------------|----------------|----------------|
A|--------2---4---|6---5---6---8---|----------------|----------------|
E|4---6-----------|----------------|6--6----8--8----|9--9----10--10--|

D|----------------|
G|----------------|
A|6~~-------------| slide down again, now it goes over to the organ solo,
E|----------------| in the first(verse)part of it there's no bass, then in  the second 
you play the Pre-Chorus.


-------------------------------------------------------------------------

That's it, have fun.
Suggest correction
Give kudos to tab author, rate the tab!
1 2 3 4 5
comments
print report bad tab
guest
You may want to rate the tab now too:
select rating
Wanna post a correction for this tab? Suggest correction