Oops, an error
Loading. Please wait.

Warsaw Bass Tab

version 1
version 1

Whole song

Interactive

902 views 1 this week
no commentswrite comment
1 2 3 4 5
3 more votes to show rating
add to favorites
launch autoscroll
font size
0
reset
guitar tuner
Autoscroll
slow
fast
+/-
esc
set tempo
stop
Help us to improve Ultimate-Guitar.com Take our survey!
×
Song: Warsaw
Band: Rancid
Album: Life Won't Wait
Tabbed by: Ryan Christo

G:-----------------------------------------------------------------
D:---------2-0-----------------------------2-0---------------------
A:-------------2-0-3-2-3-4-5-3-2-0-------------2-0-5-3-2-0---2-3-5-
E:-3-3-333-------------------------3-3-333-----------------3-------

G:-----------------------------------------------------------------
D:---------2-0-----------------------------2-0---------------------
A:-------------2-0-3-2-3-4-5-3-2-0-------------2-0-5-3-2-0---2-3-4-
E:-3-3-333-------------------------3-3-333-----------------3-------
 
G:-------------------------------------------4-5-7-5-4-------------
D:---4-2-0-----------2-0-------------4-5-6-7-----------7-5-4-------
A:-5-------3-2-0---3-----3---2-3-4-5-------------------------7-5-3-
E:---------------3---------3---------------------------------------

G:-----------------------------------------------------------------
D:-------------------2-0-------------------------------------------
A:---2-3-4-5-3-2-0-3-----3---2-3-5-7-7-777-5-5-555-3-3-333---------
E:-3-----------------------3-------------------------------3-3-333-

G:-----------------------------------------------------------------
D:---------2-0-----------------------------2-0---------------------
A:-------------2-0-3-2-3-4-5-3-2-0-------------2-0-5-3-2-0---2-3-5-
E:-3-3-333-------------------------3-3-333-----------------3-------

G:-----------------------------------------------------------------
D:---------2-0-----------------------------2-0---------------------
A:-------------2-0-3-2-3-4-5-3-2-0-------------2-0-5-3-2-0---2-3-4-
E:-3-3-333-------------------------3-3-333-----------------3-------
 
G:-------------------------------------------4-5-7-5-4-------------
D:---4-2-0-----------2-0-------------4-5-6-7-----------7-5-4-------
A:-5-------3-2-0---3-----3---2-3-4-5-------------------------7-5-3-
E:---------------3---------3---------------------------------------

G:-----------------------------------------------------------------
D:-------------------2-0-------------------------------------------
A:---2-3-4-5-3-2-0-3-----3---2-3-5-7-7-777-5-5-555-3-3-333---------
E:-3-----------------------3-------------------------------3-3-333-

G:---------------------------------
D:---------------------------------
A:-7-7-777-5-5-555-3-3-333---------
E:-------------------------3-3-333-

G:----------------------------44-55-66-77-66-55-44-
D:----44-55-66-77-66-55-44-55----------------------
A:-55----------------------------------------------
E:-------------------------------------------------

G:------------------------------------------------------------------
D:------------------------------------------------------------------
A:-7-7-5-5-3-3-0-0-5-5-3-3-2-2-0-0---------3-----3-5-7---5---3------
E:---------------------------------3---3-------3-----------------3--

G:---------------------------------------------------------------
D:---------------------------------------------------------------
A:---3-7-7-777-5-5-555-3-3-333-------3-7-7-777-5-5-555-3-3-333---
E:-3---------------------------3-3-33--------------------------3-


Suggest correction
Give kudos to tab author, rate the tab!
1 2 3 4 5
comments
print report bad tab
guest
You may want to rate the tab now too:
select rating
Wanna post a correction for this tab? Suggest correction