Oops, an error
Loading. Please wait.

Who Wouldve Thought Bass Tab

version 2
version 2

Whole song

3,442 views 15 this week
1 commentread comment
1 2 3 4 5
excellent!
x 3
add to favorites
launch autoscroll
font size
0
reset
guitar tuner
Autoscroll
slow
fast
+/-
esc
set tempo
stop
Help us to improve Ultimate-Guitar.com Take our survey!
×
Contributor
Difficulty
novice
Cool song and easy to play
Standard tuning E,A,D,G

Verse part 1

|-------------------------------------------------0-2-0--2-2-0-0-------------|
|-----------------------------------------------2----------------3-3-2-0-----|
|------0-0-1-0------0-0-1-2--3--3-----1----3--3--------------------------2-0-|
|-1--1---------1--1---------------3-3---3------------------------------------|

|-0-0------------------|
|-----3-3-2-2-0-0-2-0--|
|----------------------|
|----------------------|

Verse part 2

|-------------------------------------------------0-2-0--2-2-0-0-------------|
|-----------------------------------------------2----------------3-3-2-0-----|
|------0-0-1-0------0-0-1-2--3--3-----1----3--3--------------------------2-0-|
|-1--1---------1--1---------------3-3---3------------------------------------|
Let ring
|-0-|
|---|
|---|
|---|

Chorus x3

|-----------------------------|
|-----------------------------|
|-3--3---------------3-3--3---|
|------0-0--0-1-1--1----------|

End of chorus x2

|--------------------|
|--------------------|
|-----0-1--3--3------|
|-1-1----------------|

Then play
Verse part 1 and 2 x1
Chorus x3
End of chorus x2
Verse part 2 x1

Bridge x1

|-5-3-2---------|
|-------5-3-2---|
|-------------5-|
|---------------|

Then play
Verse part 2 x1
Chorus x3
End of chorus x6

Then end with(let both notes ring)

|-------------|
|-------------|
|---------3---|
|-1-----------|

Thats it! hope ya like it

Tabbed by Rob
Suggest correction new What's this?
You can suggest a correction to this tab. Community and Mods will review your correction and vote to approve or reject it.
comments
We did not receive enough feedback on this tab! Please rate:
print report bad tab
1 2 3 4 5
1 comment total.
0 reply
googleberg 10 wrote on March 30 2008, 04:41 pm

excellent
im pretty sure thats perfect
cheers

guest
You may want to rate the tab now too:
select rating
Please do not post tabs as comments. Select "correction" instead!