Oops, an error
Loading. Please wait.

You Want It You Got It Bass Tab

version 2
version 2

Whole song

2,717 views 6 this week
no commentswrite comment
1 2 3 4 5
accurate
x 2
add to favorites
launch autoscroll
font size
0
reset
guitar tuner
Tab Pro tools
  • play this tab
  • loop segment
  • change instrument
  • show fretboard
  • metronome
Autoscroll
slow
fast
+/-
esc
set tempo
stop
Difficulty
intermediate
-------------------------------------------------------------------------------
			  "You Want It, You Got It - Rancid
-------------------------------------------------------------------------------

Tabbed By : Michael Griese

Tuning: Standard

There wasn't an accurate tab so I made one. Matt Freeman  seems to make some
minor variations during the verses when he isn't singing so play around.

Intro
G|--------------------------------------|
D|-0-0000-7-777-6-5-555-6-7-5h7-5h7-5h7-|
A|--------------------------------------|
E|--------------------------------------|

G|----------------7---------------------|
D|-0-0000-7-7776-5-5-7p5h7p5h7p5h5------|
A|--------------------------------------|
E|--------------------------------------|

Chorus

G|-------------------------------|
D|--------7-7777-5-4-5-6-7-5-4---|
A|-5-5555----------------------5-|
E|-------------------------------|

Verse

G|-------------------------------|
D|-------------------------------|
A|-5-555-3-----------------2-3-4-|
E|---------5-555-3-2-3-4-5-------|

Interlude

G|-----------------------------------------------------------------|
D|-----------------------------------------------------------------|
A|-5-5555--------5-5555---------5-5555-----------------------------|
E|--------5-5555--------5-5555---------5-5555-4-4444-3-3333-2-2222-|

After the part with just the guitar

G|-------|
D|-------|
A|-0-2-3-|
E|-------|

Outro
G|-------------------------------|
D|--------7-7777-5-4-5-6-7-5-4---|
A|-5-5555----------------------5-|
E|-------------------------------|

G|-------------------------------|
D|--------7-7777-5-4-5-6-7-5-4---|
A|-5-5555----------------------5-|
E|-------------------------------|

G|---------------7-5-4----------|
D|--------7-7777-------7-5-4-5-7|
A|-5-5555-----------------------|
E|------------------------------|

G|-------------------------------|
D|--------7-7777-5-4-5-6-7-5-4---|
A|-5-5555----------------------5-|
E|-------------------------------|

End on 

G|---|
D|---|
A|---|
E|-5-|

h  hammer-on
p  pull-off

Questions? Comments? 
E-mail me at matadio@gmail.com
comments
We did not receive enough feedback on this tab! Please rate:
print report bad tab
1 2 3 4 5
I want to post or [tab]
guest
You may want to rate the tab now too:
select rating
Please do not post tabs as comments. Select "correction" instead!