Oops, an error
Loading. Please wait.

Looking Out For Number One tab

127 views 3 this week
no commentswrite comment
1 2 3 4 5
3 more votes to show rating
add to favorites
×
Save as Personal and add changes to this tab that will be seen only by you. Learn more ›
×
You can save this tab as Personal to edit and correct it or add notes. All changes will be seen only by you. Learn more »
launch autoscroll
font size
0
reset
how to read this tab
guitar tuner
edit
Autoscroll
slow
fast
+/-
esc
set tempo
stop
Author
[Intro]

(Intro and Chorus chords have a bit of swing, listen to recording for rhythm)

  F#m7  F7     E7sus4   A           F#m7  F7     E7sus4   A
e|x-----x---------x-----x---------|-x-----x---------x-----x---------|
B|x-----x---------x-----x---------|-x-----x---------x-----x-------0-|
G|2-----2---------2-----2---------|-2-----2---------2-----2-----2---|
D|2-----1---------0-----2---------|-2-----1---------0-----2---2-----|
A|x-----x---------x-----0---------|-x-----x---------x-----0---------|
E|2-----1---------0-----x---------|-2-----1---------0-----x---------|


  Am7   Ab7   G7sus4    C         F#m7     F7 E7sus4 A            (h)
e|x-----x---------x-----x---------|-x---x---x-x---x---------------12-|
B|x-----x---------x-----x---------|-x---x---x-x---x------------------|
G|5-----5---------5-----5---------|-2---2---2-2---2------------------|
D|5-----4---------3-----5---------|-2---2---1-0---0------------------|
A|x-----x---------x-----3---------|-x---x---x-x---x------------------|
E|5-----4---------3-----3---------|-2---2---1-0---0------------------| 


[Verse 1]

(Chords are straight time on the beat during verses)

  A/B    Bbm7-5   Am7   Esus2/G#    Gm13    F#m7    Fmaj7    G6
e|x-------x-------x-------x-------|-x--------x-------0-------0-------|
B|5-------5-------5-------5-------|-5--------5-------1-------3-------|
G|6-------6-------5-------4-------|-3--------2-------2-------4-------|
D|x-------x-------x-------x-------|-x--------x-------2-------4-------|
A|x-------x-------x-------x-------|-x--------x-------x-------x-------|
E|7-------6-------5-------4-------|-3--------2-------1-------3-------|
    every day is an endless dream 
                          you got to ride it to the 
                                              end of the line

 A/B    Bbm7-5   Am7    Esus2/G#  Gm13     F#m7    Fmaj7    G6
e|x-------0-------0-------x-------|x--------x-------0-------0-------|
B|5-------5-------5-------5-------|5--------5-------1-------3-------|
G|6-------6-------5-------4-------|3--------2-------2-------4-------|
D|x-------x-------x-------x-------|x--------x-------2-------4-------|
A|x-------x-------x-------x-------|x--------x-------x-------x-------|
E|7-------6-------5-------4-------|3--------2-------1-------3-------|
   be a trouble
           shooter blow the 
                    bad luck away 
                       and you will make it to the    
                                            station in time       and you'll find

[Chorus]

  F#m7  F7     E7sus4   A          F#m7  F7     E7sus4   A 
e|x-----x---------x-----x---------|x-----x---------x-----x---------|
B|x-----x---------x-----x---------|x-----x---------x-----x-------0-|
G|2-----2---------2-----2---------|2-----2---------2-----2-----2---|
D|2-----1---------0-----2---------|2-----1---------0-----2---2-----|
A|x-----x---------x-----0---------|x-----x---------x-----0---------|
E|2-----1---------0-----x---------|2-----1---------0-----x---------|
   out      every  trick in the 
                         book  and that there’s
                                    only one way to  get things  
                                                          done    you'll find  

  Am7   Ab7   G7sus4    C         F#m7     F7 E7sus4 A            (h)
e|x-----x---------x-----x---------|-x---x---x-x---x---------------12-|
B|x-----x---------x-----x---------|-x---x---x-x---x------------------|
G|5-----5---------5-----5---------|-2---2---2-2---2------------------|
D|5-----4---------3-----5---------|-2---2---1-0---0------------------|
A|x-----x---------x-----3---------|-x---x---x-x---x------------------|
E|5-----4---------3-----3---------|-2---2---1-0---0------------------| 
   out     the only way to the top is looking 
                                     out for number one    I mean you keep looking  
                                     out for number one


[Solo 1]

    
  F#m7  F7     E7sus4   A          F#m7  F7     E7sus4   A 
e|x-----x---------x-----x---------|x-----x---------x-----x---------|
B|x-----x---------x-----x---------|x-----x---------x-----x-------0-|
G|2-----2---------2-----2---------|2-----2---------2-----2-----2---|
D|2-----1---------0-----2---------|2-----1---------0-----2---2-----|
A|x-----x---------x-----0---------|x-----x---------x-----0---------|
E|2-----1---------0-----x---------|2-----1---------0-----x---------|


  Am7   Ab7   G7sus4    C         F#m7     F7 E7sus4 A            (h)
e|x-----x---------x-----x---------|-x---x---x-x---x---------------12-|
B|x-----x---------x-----x---------|-x---x---x-x---x------------------|
G|5-----5---------5-----5---------|-2---2---2-2---2------------------|
D|5-----4---------3-----5---------|-2---2---1-0---0------------------|
A|x-----x---------x-----3---------|-x---x---x-x---x------------------|
E|5-----4---------3-----3---------|-2---2---1-0---0------------------| 


[Verse 2]

  A/B    Bbm7-5   Am7   Esus2/G#    Gm13    F#m7    Fmaj7    G6
e|x-------x-------x-------x-------|-x--------x-------0-------0-------|
B|5-------5-------5-------5-------|-5--------5-------1-------3-------|
G|6-------6-------5-------4-------|-3--------2-------2-------4-------|
D|x-------x-------x-------x-------|-x--------x-------2-------4-------|
A|x-------x-------x-------x-------|-x--------x-------x-------x-------|
E|7-------6-------5-------4-------|-3--------2-------1-------3-------|

 A/B    Bbm7-5   Am7    Esus2/G#  Gm13     F#m7    Fmaj7    G6
e|x-------0-------0-------x-------|x--------x-------0-------0-------|
B|5-------5-------5-------5-------|5--------5-------1-------3-------|
G|6-------6-------5-------4-------|3--------2-------2-------4-------|
D|x-------x-------x-------x-------|x--------x-------2-------4-------|
A|x-------x-------x-------x-------|x--------x-------x-------x-------|
E|7-------6-------5-------4-------|3--------2-------1-------3-------|


[Chorus]

  F#m7  F7     E7sus4   A          F#m7  F7     E7sus4   A 
e|x-----x---------x-----x---------|x-----x---------x-----x---------|
B|x-----x---------x-----x---------|x-----x---------x-----x-------0-|
G|2-----2---------2-----2---------|2-----2---------2-----2-----2---|
D|2-----1---------0-----2---------|2-----1---------0-----2---2-----|
A|x-----x---------x-----0---------|x-----x---------x-----0---------|
E|2-----1---------0-----x---------|2-----1---------0-----x---------|

  Am7   Ab7   G7sus4    C         F#m7     F7 E7sus4 A            (h)
e|x-----x---------x-----x---------|-x---x---x-x---x---------------12-|
B|x-----x---------x-----x---------|-x---x---x-x---x------------------|
G|5-----5---------5-----5---------|-2---2---2-2---2------------------|
D|5-----4---------3-----5---------|-2---2---1-0---0------------------|
A|x-----x---------x-----3---------|-x---x---x-x---x------------------|
E|5-----4---------3-----3---------|-2---2---1-0---0------------------| 

 
[Solo 2]

(with feeling)

  F#m7  F7     E7sus4   A          F#m7  F7     E7sus4   A 
e|x-----x---------x-----x---------|x-----x---------x-----x---------|
B|x-----x---------x-----x---------|x-----x---------x-----x-------0-|
G|2-----2---------2-----2---------|2-----2---------2-----2-----2---|
D|2-----1---------0-----2---------|2-----1---------0-----2---2-----|
A|x-----x---------x-----0---------|x-----x---------x-----0---------|
E|2-----1---------0-----x---------|2-----1---------0-----x---------|

  F#m7  F7     E7sus4   A          F#m7  F7     E7sus4   A 
e|x-----x---------x-----x---------|x-----x---------x-----x---------|
B|x-----x---------x-----x---------|x-----x---------x-----x-------0-|
G|2-----2---------2-----2---------|2-----2---------2-----2-----2---|
D|2-----1---------0-----2---------|2-----1---------0-----2---2-----|
A|x-----x---------x-----0---------|x-----x---------x-----0---------|
E|2-----1---------0-----x---------|2-----1---------0-----x---------|

    Am7   Ab7   G7sus4    C          Am7   Ab7   G7sus4    C  
e|x-----x---------x-----x---------|x-----x---------x-----x---------| 
B|x-----x---------x-----x---------|x-----x---------x-----x---------|
G|5-----5---------5-----5---------|5-----5---------5-----5---------|
D|5-----4---------3-----5---------|5-----4---------3-----5---------| 
A|x-----x---------x-----3---------|x-----x---------x-----3---------|
E|5-----4---------3-----x---------|5-----4---------3-----x---------|

    Am7   Ab7   G7sus4    C          Am7   Ab7   G7sus4    C  
e|x-----x---------x-----x---------|x-----x---------x-----x---------| 
B|x-----x---------x-----x---------|x-----x---------x-----x---------|
G|5-----5---------5-----5---------|5-----5---------5-----5---------|
D|5-----4---------3-----5---------|5-----4---------3-----5---------| 
A|x-----x---------x-----3---------|x-----x---------x-----3---------|
E|5-----4---------3-----x---------|5-----4---------3-----x---------|

    F#m7  F7     E7sus4   A           F#m7  F7     E7sus4   A
E|x-----x---------x-----x---------|x-----x---------x-----x---------|
B|x-----x---------x-----x---------|x-----x---------x-----x-------0-|
G|2-----2---------2-----2---------|2-----2---------2-----2-----2---|
D|2-----1---------0-----2---------|2-----1---------0-----2---2-----|
A|x-----x---------x-----0---------|x-----x---------x-----0---------|
E|2-----1---------0-----x---------|2-----1---------0-----x---------|

    F#m7  F7     E7sus4   A           F#m7  F7     E7sus4   A
e|x-----x---------x-----x---------|x-----x---------x-----x---------|
B|x-----x---------x-----x---------|x-----x---------x-----x-------0-|
G|2-----2---------2-----2---------|2-----2---------2-----2-----2---|
D|2-----1---------0-----2---------|2-----1---------0-----2---2-----|
A|x-----x---------x-----0---------|x-----x---------x-----0---------|
E|2-----1---------0-----x---------|2-----1---------0-----x---------|

    Am7   Ab7   G7sus4    C          Am7   Ab7   G7sus4    C  
e|x-----x---------x-----x---------|x-----x---------x-----x---------| 
B|x-----x---------x-----x---------|x-----x---------x-----x---------|
G|5-----5---------5-----5---------|5-----5---------5-----5---------|
D|5-----4---------3-----5---------|5-----4---------3-----5---------| 
A|x-----x---------x-----3---------|x-----x---------x-----3---------|
E|5-----4---------3-----x---------|5-----4---------3-----x---------|

    Am7   Ab7   G7sus4    C          Am7   Ab7   G7sus4    C  
E|x-----x---------x-----x---------|x-----x---------x-----x---------| 
B|x-----x---------x-----x---------|x-----x---------x-----x---------|
G|5-----5---------5-----5---------|5-----5---------5-----5---------|
D|5-----4---------3-----5---------|5-----4---------3-----5---------| 
A|x-----x---------x-----3---------|x-----x---------x-----3---------|
E|5-----4---------3-----x---------|5-----4---------3-----x---------|
 

    F#m7  F7     E7sus4   A           F#m7  F7     E7sus4   A
e|x-----x---------x-----x---------|x-----x---------x-----x---------|
B|x-----x---------x-----x---------|x-----x---------x-----x-------0-|
G|2-----2---------2-----2---------|2-----2---------2-----2-----2---|
D|2-----1---------0-----2---------|2-----1---------0-----2---2-----|
A|x-----x---------x-----0---------|x-----x---------x-----0---------|
E|2-----1---------0-----x---------|2-----1---------0-----x---------|

    F#m7  F7     E7sus4   A           F#m7  F7     E7sus4   A
e|x-----x---------x-----x---------|x-----x---------x-----x---------|
B|x-----x---------x-----x---------|x-----x---------x-----x-------0-|
G|2-----2---------2-----2---------|2-----2---------2-----2-----2---|
D|2-----1---------0-----2---------|2-----1---------0-----2---2-----|
A|x-----x---------x-----0---------|x-----x---------x-----0---------|
E|2-----1---------0-----x---------|2-----1---------0-----x---------|


  Am7   Ab7   G7sus4    C         F#m7     F7 E7sus4 A            (h)
e|x-----x---------x-----x---------|-x---x---x-x---x---------------12-|
B|x-----x---------x-----x---------|-x---x---x-x---x------------------|
G|5-----5---------5-----5---------|-2---2---2-2---2------------------|
D|5-----4---------3-----5---------|-2---2---1-0---0------------------|
A|x-----x---------x-----3---------|-x---x---x-x---x------------------|
E|5-----4---------3-----3---------|-2---2---1-0---0------------------|  


[Verse 3]

  A/B    Bbm7-5   Am7   Esus2/G#    Gm13    F#m7    Fmaj7    G6
e|x-------x-------x-------x-------|-x--------x-------0-------0-------|
B|5-------5-------5-------5-------|-5--------5-------1-------3-------|
G|6-------6-------5-------4-------|-3--------2-------2-------4-------|
D|x-------x-------x-------x-------|-x--------x-------2-------4-------|
A|x-------x-------x-------x-------|-x--------x-------x-------x-------|
E|7-------6-------5-------4-------|-3--------2-------1-------3-------|

 A/B    Bbm7-5   Am7    Esus2/G#  Gm13     F#m7    Fmaj7    G6
e|x-------0-------0-------x-------|x--------x-------0-------0-------|
B|5-------5-------5-------5-------|5--------5-------1-------3-------|
G|6-------6-------5-------4-------|3--------2-------2-------4-------|
D|x-------x-------x-------x-------|x--------x-------2-------4-------|
A|x-------x-------x-------x-------|x--------x-------x-------x-------|
E|7-------6-------5-------4-------|3--------2-------1-------3-------|


[Chorus]

    F#m7  F7     E7sus4   A
e|x-----x---------x-----x---------|x-----x---------x-----x---------|
B|x-----x---------x-----x---------|x-----x---------x-----x-------0-|
G|2-----2---------2-----2---------|2-----2---------2-----2-----2---|
D|2-----1---------0-----2---------|2-----1---------0-----2---2-----|
A|x-----x---------x-----0---------|x-----x---------x-----0---------|
E|2-----1---------0-----x---------|2-----1---------0-----x---------|
   out      every  trick in the 
                         book  and that there’s
                                    only one way to  get things  
                                                          done    you'll find  


    Am7   Ab7   G7sus4    C         F#m7     F7 E7sus4 A            
e|x-----x---------x-----x---------|x---x---x-x---x----------------|
B|x-----x---------x-----x---------|x---x---x-x---x----------------|
G|5-----5---------5-----5---------|2---2---2-2---2----------------|
D|5-----4---------3-----5---------|2---2---1-0---0----------------|
A|x-----x---------x-----3---------|x---x---x-x---x----------------|
E|5-----4---------3-----3---------|2---2---1-0---0----------------|

   out     the only way to the top is looking 
                                     out for number one    I mean you keep looking  

  F#m7     F7 E7sus4 A           F#m7     F7 E7sus4 A   
e|x---x---x-x---x----------------|x---x---x-x---x----------------|
B|x---x---x-x---x----------------|x---x---x-x---x----------------|
G|2---2---2-2---2----------------|2---2---2-2---2----------------|
D|2---2---1-0---0----------------|2---2---1-0---0----------------|
A|x---x---x-x---x----------------|x---x---x-x---x----------------|
E|2---2---1-0---0----------------|2---2---1-0---0----------------|

   out for number one    I mean us keep looking  
                                     out for number one    I mean me I’m looking
                                                                         
  F#m7                 F7 
e|x--x--------------|x--x-------------------|
B|x--x--------------|x--x-------------------| 
G|2--2--------------|2--2-------------------| 
D|2--2--------------|1--1-------------------| 
A|x--x--------------|x--x-------------------| 
E|2--2--------------|1--1-------------------| 
 out  for            num ber.............


[Outro]

(Rhythm changes but chords are the same as verses. I think it changes to 6/8 time)

  A/B           Bbm7-5        Am7         Esus2/G#  

e||--x-----x-----x-----x---|--x-----x-----x-----x---|
B||--5-----5-----5-----5---|--5-----5-----5-----5---|
G||--6-----6-----6-----6---|--5-----5-----4-----4---|
D||--x-----x-----x-----x---|--x-----x-----x-----x---|
A||--x-----x-----x-----x---|--x-----x-----x-----x---|
E||7-----7-----6-----6-----|5-----5-----4-----4-----|

one.......................

  Gm13         F#m7        Fmaj7         G6

e|--x-----x-----x-----x---|----------------0-----||
B|--5-----5-----5-----5---|--1-----1----3-----3--||
G|--3-----3-----2-----2---|-2---2------4---------||Repeat and fade
D|--x-----x-----x-----x---|----------------------||
A|--x-----x-----x-----x---|----------------------||
E|3-----3-----2-----2-----|1----------3----------||



************************************

| x   Dead note
|(h)  Harmonic

************************************

            
            
Suggest correction
Creating personal tab
Creating personal tab
You can edit any tab online and save it as your Personal.

You can edit, replace or remove any tab part or add personal notes – all changes will be seen only by you.

Personal tabs can be accessed anytime from any device, even offline.
Learn more »
Give kudos to tab author, rate the tab!
1 2 3 4 5
comments
print report bad tab
guest
You may want to rate the tab now too:
select rating
Wanna post a correction for this tab? Suggest correction