Oops, an error
Loading. Please wait.

How Country Feels Tab

11,604 views 12 this week
2 commentsread comments
1 2 3 4 5
x 6
add to favorites
launch autoscroll
font size
0
reset
how to read this tab
guitar tuner
Autoscroll
slow
fast
+/-
esc
set tempo
stop
Help us to improve Ultimate-Guitar.com Take our survey!
×
Difficulty
intermediate
Hello, I am Rayan M.
I am a brazilian guy , and I love for Country songs!
This is my first Tab here. I hope you like . Thanks!

Randy Houser - How Country Feels

Tuning: Standard

Intro/ Part 1 (CHORDS): Em Em C, D D Em, D D G, Bm Bm C

Intro/ Part 1(GUITAR) : 
E5 E5 C5, D5 D5 E5, D5 D5 G5, B5 B5 C5

e|------------------------------------------------------|
B|------------------------------------------------------|
G|--9--9--5-------7--7--9-------7--7--12-------4--4--5--|
D|--9--9--5-------7--7--9-------7--7--12-------4--4--5--|
A|--7--7--3-------5--5--7-------5--5--10-------2--2--3--|
E|------------------------------------------------------|

(Part 1)
You were raised on an asphalt farm
Ain't never heard a rooster crow
Never walked barefoot by a river
Felt the mud up between your toes 

(Pre Refrain)

C5
You never rolled in the hay
D5
You never thrown it in four wheel
C5
Climb up on here girl
D5
Let me show you how country feels 



(Refrain) (CHORDS - Em C G D 4x)

E5              C5
  Let your hair down, hair down
G5              D5
  Get you some of this laid on back
E5              C5
  Kick your shoes off, kick 'em off
G5              D5
  Get you some of this slow down fast
E5         C5        G5       D5
  I'll take you up and down these hollers and hills
E5      C5        B5
  Let me show you how country feels 


(Repeat Intro)
(Part 2) (Repeat Part 1)

You ever watched the sun go down
From the bed of a pickup truck
Ever been so into somebody
You're still lying there when it comes back up 


(Pre Refrain 2)
C5
Girl what do you say?
D5
Cut a path through that cornfield
C5
Park down by the water
D5
Let me show you how country feels 




E5              C5
  Let your hair down, hair down
G5              D5
  Get you some of this laid on back
E5              C5
  Kick your shoes off, kick 'em off
G5              D5
  Get you some of this slow down fast
E5         C5        G5       D5
  I'll take you up and down these hollers and hills
E5      C5        B5
  Let me show you how country feels 


SOLO:
e|-----3--2--3--5--7--5--3--2-----0--3----7--7/10---7--5~|
B|-----------------------------3-------------------------|
G|-------------------------------------------------------|
D|--------------------0--------------------------------0-|
A|--3--------------------------------3-------------------|
E|-------------------------------------------------------|

e|------15--15--15------15------15-----14--12--10/12\10--|
B|--15--------------15------15---------------------------|
G|-------------------------------------------------------|
D|----------------------------------0--------------------|
A|--15---------------------------------------------------|
E|-------------------------------------------------------|

e|--7--7--5/7--5------5--7--5---3----2/3---------------------|
B|----------------8-----------------------3--3--3--3/5--3/5--|
G|-----------------------------------------------------------|
D|-----------------------------------------------------------|
A|----------------------------0------------------------------|
E|--------8--------------------------------------------------|

E5       C5
Let your hair down
G5       D5
Get you some of this laid on back
E5       C5        G5
Kick your shoes off (Kick your shoes off)




E5              C5
  Let your hair down, hair down
G5              D5
  Get you some of this laid on back
E5              C5
  Kick your shoes off, kick 'em off
G5              D5
  Get you some of this slow down fast
E5         C5        G5       D5
  I'll take you up and down these hollers and hills
E5      C5        B5
  Let me show you how country feels 

(Repeat Intro)

Final Riff


e|-------------------------------------------------------7/8--7----|
B|--------------------------------------------------------------8--|
G|--9--9--5-------7--7--9-------7--7--12---------------------------|
D|--9--9--5-------7--7--9-------7--7--12-------9--9--10------------|
A|--7--7--3-------5--5--7-------5--5--10-------9--9--10------------|
E|---------------------------------------------7--7--8-------------|


e|-----------------3---3---3---3/7---------7/8---7--5--3---5--7--3-|
B|-------------------5---5---------------------------------------3-|
G|--4--4--5------------------------------------------------------5-|
D|--4--4--5-----0-0------------------0--0------------------------5-|
A|--2--2--3--------------------------------10--------------------3-|
E|-----------------------------0---------------------------------x-|
Suggest correction
comments
print report bad tab
2 comments total.
0 reply
jjw1821 10 Jul 11, 2014 07:56 PM

Lack of accuracy.

0 reply
hckyplyr 10 Aug 26, 2014 09:09 PM

Lack of accuracy.

guest
You may want to rate the tab now too:
select rating
Wanna post a correction for this tab? Suggest correction