Oops, an error
Loading. Please wait.

I Love La tab

1,144 views 12 this week
no commentswrite comment
1 2 3 4 5
1 last vote to show rating
add to favorites
×
Save as Personal and add changes to this tab that will be seen only by you. Learn more ›
×
You can save this tab as Personal to edit and correct it or add notes. All changes will be seen only by you. Learn more »
launch autoscroll
font size
0
reset
how to read this tab
guitar tuner
edit
Autoscroll
slow
fast
+/-
esc
set tempo
stop
Author
Difficulty
intermediate
Tabbed by col94
Chords & lyrics transcribed by Elson Trinidad (ertrinid@skat.usc.edu)

Intro:

E|--------------------------------------------------------------------------------------|
B|--------------------------------------------------------------------------------------|
G|--------------------------------------------------------------------------------------|    (2x)
D|---------------4-2-----------------2---2------------------4-2-----------------2---2---|
A|-5-----------4-----4-4-----------4---4---4-5------------4-----4-4-----------4---4---4-|
E|---2-5---2-5-----------0-4---0-0--------------2-5---2-5-----------0-4---0-0-----------|

A
Rollin' down
E
Imperial Highway
A            D
Big nasty redhead at my side
A                       E
Santa Ana winds blowing hot from the north
             A          F#m  E
And we were born to ride
A
Roll down the windows
E
Put down the top
A
Crank up the Beach Boys then
D                    F#m
Don't let the music stop
A
We're gonna ride it till we
E                        F#m
Just can't ride it no more

E|------------------------|
B|------------------------|
G|------------------------|
D|------2-4-------2-4-2---|
A|----4---------4-------4-|
E|-2--------2-------------|

D
>From the South Bay
F#m
To the Valley
C#m
>From the Westside
E
To the Eastside
D
Everybody's
F#m
Very happy
C#m                     E
Cos the sun is shinin' all the time
            G
Looks like another perfect day

I Love L.A.             We love it!

E|-----5-5-5-5----------------------5-5-5-5-|
B|-----5-5-5-5----------------------5-5-5-5-|
G|-5\6--------------------------5\6---------|    (2x)
D|------------------------------------------|
A|------------------------------------------|
E|------------------------------------------|

We love it!

(Tango Part (Synth Solo)):
F         F/C         Am        Am/E       Bb        Bb/F       F       F/C

F        F/C         Eb           Eb/Bb

G    G3   G    G9
Ahhhhhh......

C
Look at that mountain
G
Look at those trees
C
Look at that bum over there
      F               Am
Man, he's down on his knees
C
Look at these women
G                         Am    F
Ain't nothin' like them nowhere

E|-----------------------|
B|-----------------------|
G|-----------------------|
D|-------5-7-3-----------|
A|-0-5-7-------5-3-3-5-3-|
E|-----------------------|

Am            F
Century Blvd...We love it!
Am            F
Victory Blvd...We love it!
Am                 F
Santa Monica Blvd...We love it!
G   G3   G   G9
6th Street..We love it, we love it we love it....

We love L.A.!

Guitar Solo:

E|----------------------------------------------8-----------------8---------------------------|
B|--------------------------------------------------------------------------------------------|
G|----------------------------------5--5--7--5-----5--5--5--7--5-----5--5--5--7--5--7b7b7b7b7-|
D|---------------3\5--5--5\7--5--7------------------------------------------------------------|
A|-3~--3--5b5/1-------------------------------------------------------------------------------|
E|--------------------------------------------------------------------------------------------|

E|------------------------------10b12b--10b12b--10b12--8--10b11b--10b11b--10b11--8--10--------|
B|---------------------------8----------------------------------------------------------------|
G|-4h5p4h5p4h5p4------------------------------------------------------------------------------|
D|----------------5-------5-------------------------------------------------------------------|
A|-------------------5\7----------------------------------------------------------------------|
E|--------------------------------------------------------------------------------------------|

E|-8--10--12--10--12--13--15--15b17--15~------------------------------------------------------|
B|--------------------------------------------------------------------------------------------|
G|--------------------------------------------------------------------------------------------|
D|--------------------------------------------------------------------------------------------|
A|--------------------------------------------------------------------------------------------|
E|--------------------------------------------------------------------------------------------|

I Love L.A.      We love it!

E|-----8-8-8-8-|
B|-----8-8-8-8-|
G|-8\9---------|    (5x)
D|-------------| 
A|-------------|
E|-------------|

            
            
Suggest correction
Creating personal tab
Creating personal tab
You can edit any tab online and save it as your Personal.

You can edit, replace or remove any tab part or add personal notes – all changes will be seen only by you.

Personal tabs can be accessed anytime from any device, even offline.
Learn more »
Give kudos to tab author, rate the tab!
1 2 3 4 5
comments
print report bad tab
guest
You may want to rate the tab now too:
select rating
Wanna post a correction for this tab? Suggest correction