Oops, an error
Loading. Please wait.

Its Money That I Love chords

version 2
version 2

Whole song

324 views 3 this week
no commentswrite comment
1 2 3 4 5
1 last vote to show rating
add to favorites
×
Save as Personal and add changes to this tab that will be seen only by you. Learn more ›
×
You can save this tab as Personal to edit and correct it or add notes. All changes will be seen only by you. Learn more »
launch autoscroll
font size
0
reset
transpose
0
reset
simplify chords
display chords
guitar tuner
edit
Autoscroll
slow
fast
+/-
esc
set tempo
stop
Author
Difficulty
maguri [tm] 31,290
intermediate
Strumming
There is no strumming pattern for this song yet. and get +5 IQ
--------------------------------------------------------------------------
         It’s Money That I Love - Randy Newman
---------------------------------------------------------------------------
Tabbed by: maguri
Tuning: Standard

Randy Newman
It’s Money That I Love (1978)
(Randy Newman)

From: "Born Again"

---------------------------------------------------------------------------

time signature: 4/4 (shuffle feel)


INTRO / VERSE 1 + 2
  G(7)
  1 + 2 + 3 + 4 +  1 + 2 + 3 + 4 +  
e|--3-------3-----|--3-------3-----|
B|----5-------5---|----5-------5---|
G|4-----3h4-----4-|------3h4-----4-|
D|0-------------0-|--------------0-|
A|----------------|----------------|
E|3-------------3-|--------------3-|


VERSE 3 / OUTRO / SOLO 
  G   G6  G7  G6 G     G6  G7  G6 G
  1 + 2 + 3 + 4 +  1 + 2 + 3 + 4 +  
e|3-------------3-|--------------3-|
B|3-------------3-|--------------3-|
G|0-0-----------0-|--0-----------3-|
D|0-0-2---3---2-0-|--0-2---3---2-0-|
A|----------------|----------------|
E|3---3---3---3-3-|----3---3---3-3-|

VERSE 3, 2nd half (shuffle feel)
  G  G6  G7  G6 G(#9) G6  G7  G6 G(#9)
  1 + 2 + 3 + 4 +  1 + 2 + 3 + 4 +  
e|3-------------3-|--------------3-|
B|3-------------3-|--------------3-|
G|0-0-----------3-|--0-----------3-|
D|0-0-2---3---2-0-|--0-2---3---2-0-|
A|----------------|----------------|
E|3---3---3---3-3-|----3---3---3-3-|


CHORUS
  G                G/B              C                F  F/E F/D F/C
  1 + 2 + 3 + 4 +  1 + 2 + 3 + 4 +  1 + 2 + 3 + 4 +  1 + 2 + 3 + 4 +
e|--3-3---3-3---3-|--3-3---3-3---3-|--3-3---3-3---3-|--1---1---1---1-|
B|----------------|----------------|----------------|--1---1---1---1-|
G|4----/4----/4---/4----/4----/4---/5----/5-----/5--|----------------|
D|----------------|----------------|----------------|3---2---0-------|
A|----------------[2]--------------|----------------|------------3---|
E[3]--------------|----------------|----------------|----------------|


---------------------------------------------------------------------------
CHORDS

          E-A-D-G-B-e
G         3-x-0-0-3-3
G/B       x-2-0-0-3-3
F/E       x-x-2-x-1-1
F/D       x-x-0-0-1-1
F/C       x-3-x-0-1-1
G(#9)     3(2)x-3-3-3

---------------------------------------------------------------------------

INTRO
| G | % | % | % |


VERSE
G
 I don't love the mountains
G
 And I don't love the sea
G
 And I don't love Jesus
G
 He never done a thing for me
G
 I ain't pretty like my sister
G
 Or smart like my dad
G                       | F |
 Or good like my mama


CHORUS
| G | G/B |     C                  | F F/E F/D F/C |
           It’s money that I love
| G | G/B |     C                  | F F/E F/D F/C |
           It’s money that I love


VERSE
G
 They say that's money
G
 Can't buy love in this world
G
 But it'll get you a half-pound of cocaine
G
 And a sixteen-year old girl
G
 And a great big long limousine
    G
On a hot September night
G
 Now that may not be love
   F
But it is all right


CHORUS
|  G  |  G/B |      C                  | F F/E F/D F/C |
 One,   two  - It’s money that I love - Wanna kiss you 
|  G  |  G/B  |     C                  | F F/E F/D F/C |
Three,  four  - It’s money that I love


SOLO
| G | % | % | % |
| Bb | C | G | % |


VERSE
G             G
 Used to worry about the poor
G                 G
 But I don't worry anymore
G             G
 Used to worry about the black man
G                 G
 Now I don't worry about the black man
G(#9)           G(#9)
 Used to worry about the starving children of India
G(#9)                          G(#9)
 You know what I say about the starving children of India?


CHORUS
       |  G  |  G/B |    C                 | F F/E F F/E |
I say, "Oh mama"  - It’s money that I love
     G                  |  G/B  |      C                 | F F/E F/D F/C |
It’s money that I love            It’s money that I love


SOLO
| G | % | % | % |
| Bb | C | G | % | % | % |


CHORUS
     G                       G/B                     C                 | F F/E F/D F/C |
It’s money that I love, it's money that I love, it's money that I love
     G                       G/B                     C                 | F F/E F/D F/C |
It’s money that I love, it's money that I love, it's money that I love


OUTRO
| G | % | 
Suggest correction
Creating personal tab
Creating personal tab
You can edit any tab online and save it as your Personal.

You can edit, replace or remove any tab part or add personal notes – all changes will be seen only by you.

Personal tabs can be accessed anytime from any device, even offline.
Learn more »
Give kudos to tab author, rate the tab!
1 2 3 4 5
comments
print report bad tab
guest
You may want to rate the tab now too:
select rating
Wanna post a correction for this tab? Suggest correction