Oops, an error
Loading. Please wait.

Youve Got A Friend In Me bass

version 1
version 1

Whole song

Interactive

5,707 views 21 this week
1 commentread comment
1 2 3 4 5
x 5
add to favorites
×
Save as Personal and add changes to this tab that will be seen only by you. Learn more ›
×
You can save this tab as Personal to edit and correct it or add notes. All changes will be seen only by you. Learn more »
launch autoscroll
font size
0
reset
guitar tuner
edit
Autoscroll
slow
fast
+/-
esc
set tempo
stop
Author
Difficulty
-------------------------------------------------------------------------------
                             You've got a friend in me  - Randy Newman
-------------------------------------------------------------------------------
THIS WAS STRAIGHT FROM THE MUSIC CHORD SHEET VERY ACCURATE.


Tabbed by: A bass Player
E-mail: 

Tuning: Standard

[Verse 1 ]

   You've got a friend in me                You've got a friend in me      
G|-----------------------------------------------------------------------5-3-------|
D|----------------------------------3-5--------------------------------------5-----|
A|-6------------1---------6-----1-6--------------------------------1---6-------6---|
E|------------------------------------------4------------5----------------------4--|
 
When the road looks rough ahead and you're miles and miles from your nice warm bed 
G|-----------------------------------------------------------------------------------|
D|-----------------------------------------------------------------------------------|
A|------------------------3-----------------------------------------------------3----|
E|-------3--------3-------------------4--------------3---------------3------------4--|

  You just re-mem-ber what your old pal said, son you've got a friend in me
G|--------------------------------------------------------------------------------|
D|--------------------------------------------------------------------------------|
A|------------1-------2----3-------------3---------------------1----------6--3----|
E|-----5------------------------4---3-------------1-------------------------------|

  son you've got a friend in me
G|-----------------------------------------------------------------------------|
D|-----------------------------------------------------------------------------|
A|-----------------1---------6-------------------------------------------------|
E|----1------------------------------------------------------------------------|

   (Instrumental)- Sorry but you have to try and fit it in yourself no lyrics here 
G|--------------------4-----3-----3----3------------------------------------|
D|--------------------------------------------------------------------------|
A|--1--5--2--1--3--2-----1-----1----1---------------------------------------|
E|--------------------------------------------------------------------------|

[Verse 2 ]

   You've got a friend in me                You've got a friend in me      
G|-----------------------------------------------------------------------5-3-------|
D|----------------------------------3-5--------------------------------------5-----|
A|-6------------1---------6-----1-6--------------------------------1----6------6---|
E|------------------------------------------4------------5-----------------------4-|

You got troubles then i got em too there isn't anything that i wouldn't do for you 
G|-----------------------------------------------------------------------------------|
D|-----------------------------------------------------------------------------------|
A|------------------------3-----------------------------------------------------3----|
E|-------3--------3-------------------4--------------3---------------3------------4--|


  If we stick together we can see it through cause you've got a friend in me 
G|---------------------------------------------------------------------------------|
D|---------------------------------------------------------------------------------|
A|------------1-------2----3-------------3-----------------------1----------6--3---|
E|-----5------------------------4---3--------------1-------------------------------|

  son you've got a friend in me
G|-----------------------------------------------------------------------------|
D|-----------------------------------------------------------------------------|
A|-----------------1---------6------6-6----------------------------------------|
E|----1---------------------------------1-3------------------------------------|

   Now some oth-er folks might be a little smart-er than i am 
G|---------------------------------------------------------------------------|
D|---------------------------------------------------------------------------|
A|-----------------6----------------5---------------------5------------------|
E|-4-------------------------------------------------------------------------|

  bigger and strong-er too May-be but none of them will ev-er love you the way i do
G|-----------------------------------------------------------------------------------|
D|-----------------------------------------------------------------------------------|
A|-6------------5----------6--6-1-6-------5---------------7--------------------------|
E|------------------------------------------------------1--------2-----2-----3--3----|

   just me and you boy
G|---------------------------------------------------------------------------|
D|---------------------------------------------------------------------------|
A|-3---3-----------1---1-----------------------------------------------------|
E|---------1---1-------------------------------------------------------------|

   And as the years go by               Our friendship will ne-ver die     
G|-------------------------------------------------------------------------|
D|----------------------------------3-5------------------------------------|
A|-6------------1---------6----1-6-----------------------------------1-----|
E|------------------------------------------4----------------5-------------|
               Your'e gonna see its our des-ti-ny
G|---5-3----------------------------------------------------------------------|
D|-------5--------------------------------------------------------------------|
A|-6-------6----------------------------1---2---3-----------------------------|
E|-----------4--------------5-------------------------------------------------|

   You've got a friend in me             you've got a friend in me 
G|---------------------------------------------------------------------------|
D|---------------------------------------------------------------------------|
A|--------------1----------6-3------------------------1----------6-3---------|
E|-1--------------------------------------1----------------------------------|

   You've got a friend in me            
G|---------------------------------------------------------------------------|
D|---------------------------------------------------------------------------|
A|--------------1----------6-3---------------------------------------|
E|-1-------------------------------------------------------------------------|

   (Instrumental)- Sorry but you have to try and fit it in yourself no lyrics here 
G|--------------------4-----3-----3----3------------------------------------|
D|--------------------------------------------------------------------------|
A|--1--5--2--1--3--2-----1-----1----1------6--------------------------------|
E|--------------------------------------------------------------------------|

Thank you! 
Please rate and leave a comment below !




| /  slide up
| \  slide down
| h  hammer-on
| p  pull-off
| ~  vibrato
| +  harmonic
| x  Mute note
===============================================================================

            
            
Suggest correction
Creating personal tab
Creating personal tab
You can edit any tab online and save it as your Personal.

You can edit, replace or remove any tab part or add personal notes – all changes will be seen only by you.

Personal tabs can be accessed anytime from any device, even offline.
Learn more »
comments
print report bad tab
1 comment total.
0 reply
JacobTheoBass 10 Jul 31, 2017 01:29 PM

Sweet

guest
You may want to rate the tab now too:
select rating
Wanna post a correction for this tab? Suggest correction