Oops, an error
Loading. Please wait.

Youve Got A Friend In Me Tab

version 1
version 1

Whole song

Interactive

312,567 views 402 this week
20 commentsread comments
1 2 3 4 5
excellent!
x 68
add to favorites
launch autoscroll
font size
0
reset
how to read this tab
guitar tuner
Autoscroll
slow
fast
+/-
esc
set tempo
stop
Help us to improve Ultimate-Guitar.com Take our survey!
×
Contributor
Difficulty
Capo
intermediate
3rd fret
This is the closest your ganna find it spelled out for you.
It's a great song, rate it well. :D

Capo on the 3rd fret


[Intro]

(NOT IN RELATION TO CAPO)  (3 = 0)

      C
e|--------------------------------------------------|---------------------|
B|-----4--6--7--8---4~------7~--6---4~--------------|---------------------|
G|----3---------4-------5---------------3-----------|---------------------|
D|---5--------------5~--5---7~--6---5~--5---7~--6---|--5~---4~---3~--4~---|
A|-6~---------------------------------------9~--8---|---------------------|
E|--------------------------------------------------|---------------------|
                                                    (oh   oh   ooh   oh)

(IN RELATION TO CAPO)


[Verse]

C             G7        C
You've got a friend in me.
F            F#dim7     C
You've got a friend in me.
F          C          E7    Am
When the road looks rough ahead,
          F          C              E7        Am
and your miles and miles from your nice warm bed.
F      C            Am   F   E   Am
Just remember what your old pal said,
      D#7         G7       C
For you've got a friend in me.
A7     D#7            G7      C |Play Intro|
Yeah, you've got a friend in me.


[Chorus]

C            G7        C
You've got a friend in me.
F           F#dim7     C
You've got a friend in me.
F        C             E7        Am
You got troubles, then I got 'em too.
F            C              E7         Am
There is'nt anything I wouldn't do for you.
F        C      F           E     Am
If we stick together we can see it through,
   D#7               G7        C     A7
'cause you've got a friend in me
D#7                 G7        C     A7
Yeah, you've got a friend in me.


[Bridge]

F                  B
Some other folks might be a little bit smarter than I am,
C            B7    C
Big and stronger too.
    B         C7          Bdim7     B   Em      A
Maybe. But none of them would ever love you the way I do.
     D#7        G7
It's me and you boy.


[Chorus]

 C         G7       C
And as the years go by,
         F          F#dim7  C
our friendship will never die.
F        F#dim7              C-E7-Am
Your going to see it's our des-ti-ny,
D#7           G7        C    A7
You've got a friend in me.
D#7                 G7       C    A7
Yeah, you've got a friend in me.
D#7           G7       C  |Play Outro|
You've got a friend in me.


[Outro]

(NOT IN RELATION TO CAPO)  (3 = 0)

      C
e|--------------------------------------------------|---------------------|
B|-----4--6--7--8---4~------7~--6---4~--------------|---------------------|
G|----3---------4-------5---------------3-----------|---------------------|
D|---5--------------5~--5---7~--6---5~--5---7~--6---|--5~---4~---3~--4~---|
A|-6~---------------------------------------9~--8---|---------------------|
E|--------------------------------------------------|---------------------|
                                                    (oh   oh   ooh   oh)


************************************

| ~  Vibrato

************************************
comments
print report bad tab
20 comments total. Showing first comments.
+4 reply
Kutanmoogle 742 wrote on April 23 2008, 08:53 pm

Nicely done, but I've always been against capos combined with standard barre chords.

+2 reply
Jimmy Curtis 101 wrote on July 2 2008, 06:39 pm

Looks good but chord diagrams would be niiiiiiiice

0 reply
alexanderjames7 314 wrote on November 3 2008, 05:19 pm

capo at 4th fret. good tab though

I want to post or [tab]
guest
You may want to rate the tab now too:
select rating
Please do not post tabs as comments. Select "correction" instead!