Oops, an error
Loading. Please wait.

Youve Got A Friend In Me tab

version 6
version 6

Whole song

  • More advanced chords. In the key of E. Better organized. Easier to play.
  • Haven't seen this version on the website and I thi... Show more
  • Version from "Claire Ryann and Dad".
  • This is a fingerstyle version of the song.

Interactive

14,062 views 420 this week
18 commentsread comments
1 2 3 4 5
x 34
add to favorites
×
Save as Personal and add changes to this tab that will be seen only by you. Learn more ›
×
You can save this tab as Personal to edit and correct it or add notes. All changes will be seen only by you. Learn more »
launch autoscroll
font size
0
reset
how to read this tab
guitar tuner
edit
Autoscroll
slow
fast
+/-
esc
set tempo
stop
About this tab version
Version from "Claire Ryann and Dad".
Tabbed by: Prescottho

Capo 2

"You've Got a Friend In Me - LIVE Performance by 4-year-old Claire Ryann and Dad"

From this video
https://www.youtube.com/watch?v=ukD8zj6ngVY

All of this was tabbed by watching the video and some guessing. I think it sounds about right

[Intro]
e|-------------------0--s--------s--------------s----------------s----------s|
B|-----------0h1--3-----s--1-----s--4--3--1-----s----------------s----------s|
G|--------0-------------s-----2--s-----------0--s-------------0--s-------0--s|
D|-----2----------------s--------s--------------s--4--3--0h2-----s--0h1-----s|
A|--3-------------2-----s--0-----s--------3-----s--3--4--3-------s----------s|
E|----------------------s--------s--4--3--------s----------------s--3-------s|

[Verse 1/Chorus]

e|----------s----------s----------s--------s---------s-----------s-----------s|
B|----------s----------s----------s--------s------1--s--1-----1--s--1-----1--s|
G|-------0--s-------0--s-------0--s--3--0--s------2--s--2-----2--s--2-----0--s|
D|--0h2--2--s--0h1--1--s--0h2--2--s--2--2--s------3--s--3-----3--s--3-----2--s|
A|--3-------s----------s--3-------s--3-----s---------s-----------s-----3-----s|
E|----------s--3-------s----------s--------s-0-1-----s-----1-----s-----------s|

e|--------s---------s-----------s-----------s--------s---------s-----------s---|
B|--1--1--s------1--s--1-----1--s--1-----0--s--1--1--s------1--s--1-----1--s---|
G|--3--0--s------2--s--2-----0--s--0-----1--s--2--2--s------2--s--2-----0--s---|
D|--2--2--s------3--s--3-----2--s--2-----0--s--2--2--s------3--s--3-----2--s---|
A|--3-----s---------s-----3-----s-----2-----s--0-----s---------s-----3-----s---|
E|--------s-0-1-----s-----------s-----------s--------s-0-1-----s-----------s---|

e|-----------s--------s---------s-----------s-----------s--------s-----1--s---|
B|--1-----0--s--1--1--s------1--s--1-----1--s--1-----0--s--1--1--s-----3--s---|
G|--0-----1--s--2--2--s------2--s--2-----0--s--0-----1--s--2--2--s-----2--s---|
D|--2-----0--s--2--2--s------3--s--3-----2--s--2-----0--s--2--2--s--0-----s---|
A|-----2-----s--0-----s---------s-----3-----s-----2-----s--0-----s--------s---|
E|-----------s--------s-0-1-----s-----------s-----------s--------s--------s---|

e|--------3--s--3--------s--------s--------1--s--------3--s--3---------------|
B|--3-----3--s--3-----1--s--------s--------3--s--3-----3--s--3-----------0h1-|
G|--0-----0--s--0-----0--s--3--0--s--0-----2--s--0-----0--s--0--------0------| 
D|-----------s--------2--s--2--2--s--2--0-----s-----------s--------2---------|
A|-----------s-----3-----s--3-----s-----------s-----------s-----3------------|
E|-----3-----s-----------s--------s-----------s-----3-----s------------------| 

[Into Verse 2]

e|-----0--s--------s--------------s----------------s----------s--|
B|--3-----s--1-----s--4--3--1-----s----------------s----------s--|
G|--------s-----2--s-----------0--s-------------0--s-------0--s--|
D|--------s--------s--------------s--4--3--0h2-----s--0h1-----s--|
A|--2-----s--0-----s--------3-----s--3--4--3-------s----------s--|
E|--------s--------s--4--3--------s----------------s--3-------s--|

[Verse 2/Chorus]

e|----------s----------s----------s--------s---------s-----------s-----------s|
B|----------s----------s----------s--------s------1--s--1-----1--s--1-----1--s|
G|-------0--s-------0--s-------0--s--3--0--s------2--s--2-----2--s--2-----0--s|
D|--0h2--2--s--0h1--1--s--0h2--2--s--2--2--s------3--s--3-----3--s--3-----2--s|
A|--3-------s----------s--3-------s--3-----s---------s-----------s-----3-----s|
E|----------s--3-------s----------s--------s-0-1-----s-----1-----s-----------s|

e|--------s---------s-----------s-----------s--------s---------s-----------s---|
B|--1--1--s------1--s--1-----1--s--1-----0--s--1--1--s------1--s--1-----1--s---|
G|--3--3--s------2--s--2-----0--s--0-----1--s--2--2--s------2--s--2-----0--s---|
D|--2--2--s------3--s--3-----2--s--2-----0--s--2--2--s------3--s--3-----2--s---|
A|--3-----s---------s-----3-----s-----2-----s--0-----s---------s-----3-----s---|
E|--------s-0-1-----s-----------s-----------s--------s-0-1-----s-----------s---|

e|-----------s--------s---------s-----------s-----------s--------s-----1--s---|
B|--1-----0--s--1--1--s------1--s--1-----1--s--1-----0--s--1--1--s-----3--s---|
G|--0-----1--s--2--2--s------2--s--2-----0--s--0-----1--s--2--2--s-----2--s---|
D|--2-----0--s--2--2--s------3--s--3-----2--s--2-----0--s--2--2--s--0-----s---|
A|-----2-----s--0-----s---------s-----3-----s-----2-----s--0-----s--------s---|
E|-----------s--------s-0-1-----s-----------s-----------s--------s--------s---|

e|--------3--s--3--------s--------s--------1--s--------3--s--3--------s------|
B|--3-----3--s--3-----1--s--------s--------3--s--3-----3--s--3-----1--s------|
G|--0-----0--s--0-----0--s--3--3--s--3-----2--s--0-----0--s--0-----0--s--3---| 
D|-----------s--------2--s--2--2--s--2--0-----s-----------s--------2--s--2---|
A|-----------s-----3-----s--3-----s-----------s-----------s-----3-----s--3---|
E|-----3-----s-----------s--------s-----------s-----3-----s-----------s------| 

[Bridge]

e|-----s-----------s-----------s-----------s-----------s-----------s---------|
B|-----s--------1--s--1-----1--s--1-----4--s--4-----4--s--------5--s--5------|
G|--3--s--------2--s--2-----2--s--2-----4--s--4-----4--s--------5--s--5------|
D|--2--s--------3--s--3-----3--s--3-----4--s--4-----4--s--------5--s--5------|
A|-----s-----------s-----------s-----2-----s-----2-----s--0--3-----s-----2---|
E|-----s--0--1-----s-----1-----s-----------s-----------s-----------s---------|

e|-----s--------------------s--------s-----------s-----------s-----------s---|
B|--4--s--4--5--4--3--4--5--s-----4--s--4-----5--s--------3--s--3-----4--s---|
G|--4--s--4--5--4--3--4--5--s-----4--s--4-----5--s--------4--s--4-----4--s---|
D|--4--s--4-----------------s-----4--s--4-----5--s--------3--s--3-----4--s---|
A|-----s--------------------s--2-----s-----3-----s--3--5-----s-----6-----s---|
E|-----s--------------------s--------s-----------s-----------s-----------s---|

[Verse 3/Outro]

e|----------s--------s-------1--s--------s-----------s-------------s---------|
B|-------1--s--1--1--s--0h3--3--s-----3--s--3-----3--s--3----------s---------|
G|-------0--s--2--2--s--0h2--2--s-----0--s--0-----0--s--0-------0--s---------|
D|--0h2--2--s--2--2--s--0-------s-----0--s--0-----0--s--0--0h2--2--s-----0h1-|
A|--3-------s--0-----s----------s--------s-----------s-----3-------s---------|
E|----------s--------s----------s--3-----s-----3-----s-------------s--3------|

e|-----s----------s--------s---------s-----------s-----------s--------s-------|
B|-----s----------s--1-----s------1--s--1-----1--s--1-----1--s--1--1--s-------|
G|--0--s-------0--s--3--0--s------2--s--2-----2--s--2-----0--s--3--0--s-------|
D|--1--s--0h2--2--s--2--2--s------3--s--3-----3--s--3-----2--s--2--2--s-------|
A|-----s--3-------s--3-----s---------s-----------s-----3-----s--3-----s-------|
E|-----s----------s--------s-0-1-----s-----1-----s-----------s--------s--0--1-|

e|-----s-----------s-----------s--------s-----------s-----------s------------|
B|--1--s--1-----1--s--1-----1--s--1--1--s--------1--s--1-----1--s--1--0--1---|
G|--2--s--2-----2--s--2-----0--s--3--0--s--------2--s--2-----2--s--0--1--2---|
D|--3--s--3-----3--s--3-----2--s--2--2--s--------3--s--3-----3--s--2--0--2---|
A|-----s-----------s-----3-----s--3-----s-----------s-----------s--3-----0---|
E|-----s-----1-----s-----------s--------s--0--1-----s-----1-----s-----0------|

e|-----s-----1--s--------3--s--3--------s--------s--------1--s--------3--s--3|
B|-----s-----3--s--3-----3--s--3-----1--s--1--1--s--1-----3--s--3-----3--s--3|
G|-----s-----2--s--0-----0--s--0-----0--s--3--0--s--0-----2--s--0-----0--s--0|
D|-----s--0-----s-----------s--------2--s--2--2--s--2--0-----s-----------s---|
A|-----s--------s-----------s-----3-----s--3-----s-----------s-----------s---|
E|-----s--------s-----3-----s-----------s--------s-----------s-----3-----s---|

e|--------s--------s--1----3----0--|  F
B|-----1--s--1--1--s--3----3----1--|  I
G|-----2--s--3--0--s--2----0----0--|  N
D|-----0--s--2--2--s--0----0----2--|  I
A|--3-----s--3-----s-------2----3--|  S
E|--------s--------s-------3-------|  H




****************KEY*****************

| h   Hammer-on
| s   Slap

************************************

            
            
Suggest correction
Creating personal tab
Creating personal tab
You can edit any tab online and save it as your Personal.

You can edit, replace or remove any tab part or add personal notes – all changes will be seen only by you.

Personal tabs can be accessed anytime from any device, even offline.
Learn more »
comments
print report bad tab
18 comments total. Showing first comments.
0 reply
YEIS0N 139 Jan 31, 2017 04:05 PM

didn't like this contribution

+1 reply
YEIS0N 139 Feb 01, 2017 03:27 PM

Oh sorry, I was seeing how the stars would effect your overall rating, I actually gave 4 stars man. It was nice, throwback to being a kid and watching toy story.

0 reply
xMrXx 10 Feb 02, 2017 04:18 PM

wow - thats exactly what i was looking for, thanks so much for your work man!

guest
You may want to rate the tab now too:
select rating
Wanna post a correction for this tab? Suggest correction