Oops, an error
Loading. Please wait.

Buy Myself A Chance Tab

4,577 views 9 this week
no commentswrite comment
1 2 3 4 5
x 4
add to favorites
launch autoscroll
font size
0
reset
how to read this tab
guitar tuner
Autoscroll
slow
fast
+/-
esc
set tempo
stop
Help us to improve Ultimate-Guitar.com Take our survey!
×
Author
Difficulty
intermediate
No Capo
Standard tuning
Lead guitar:
e|---------------------------------------------------------------|
B|---------------------------------------------------------------|
G|---------------------------------------------------------------|
D|---------2---------------------2---------------------2(hold)---|
A|-------2---2h4(hold)-------------4-2---2h4---4p2-4p2-----------|
E|--00-4------------------0-2b-0-------4-------------------------| x2

e|---------------------------------------------------------------|
B|---------------------------------------------------------------|
G|---------------------------------------------------------------|
D|---------2-----------------------------------------------------|
A|-------2---2h4(hold)-------------------------------------------|
E|--00-4---------------------------------------------------------|

Rhythm Guitar:
C#m, E, C#m, E x2 

Strumming Pattern (BN= Base note (pm)= Palm Mute)- 
BN, D(pm), BN, D, U, D, U

C#m - x46654 or x42120 (BN in this chord is A string 4th fret)
E -   022100 (BN in this chord is low E string open)


-Parker Mathews
Suggest correction
comments
print report bad tab
guest
You may want to rate the tab now too:
select rating
Wanna post a correction for this tab? Suggest correction