Oops, an error
Loading. Please wait.

Everything I Own tab

136 views 3 this week
no commentswrite comment
1 2 3 4 5
3 more votes to show rating
add to favorites
×
Save as Personal and add changes to this tab that will be seen only by you. Learn more ›
×
You can save this tab as Personal to edit and correct it or add notes. All changes will be seen only by you. Learn more »
launch autoscroll
font size
0
reset
how to read this tab
guitar tuner
edit
Autoscroll
slow
fast
+/-
esc
set tempo
stop
Author
Difficulty
[Intro:]
e|----0---0--------0---0--------3/8-7-5-3-5-3----------0---0-------0---0--------3/8-7-8-7-5-3-0-----|
B|------3---3-1------3---3-1------------------3-0-1------3---3-1-----3---3-1---------------------3--|
G|--------------0------------2----------------------0--------- 2- 0-----------2------------------0--|
D|--2------------------------3------5-3-2-3-2-----2------------  3------------3-------------3-2-----|
A|3-------------------------------------------2---3-------------------------------------------3-----|
E|----------------------------------------------3-------------------------------------------------3-|


[Verse 1:]

C                                             F
I drive around with the trunk tied down with a bungee cord

G                                           C
'Cause I hopped a curb and backed into her new boyfriend's Ford

C                                                  F
And down the hall there's a hole in the wall that's hard to miss

G                                         C
It's about the size and shape of my right busted fist



[Chorus 1:]

Am7                        F
Everything I own has got a dent

C                           
It's cracked or scratched, ripped or torn

G
Banged up or slightly bent

Am7                        F   
Why should my heart be any different?

C                 G             C
Everything that I own has got a dent


[Instrumental:]

e|----0---0--------0---0--------3/8-7-5-3-5-3----------0---0-------0---0--------3/8-7-8-7-5-3-0-----|
B|------3---3-1------3---3-1------------------3-0-1------3---3-1-----3---3-1---------------------3--|
G|--------------0------------2----------------------0--------- 2- 0-----------2------------------0--|
D|--2------------------------3------5-3-2-3-2-----2------------  3------------3-------------3-2-----|
A|3-------------------------------------------2---3-------------------------------------------3-----|
E|----------------------------------------------3-------------------------------------------------3-|


C                                       F
She used to say I'm a man who's way too hard on stuff

G                                        C
And she let me know that, that also goes for our love

C                                                 F
I guess her heart's like that old dead goldfish I forgot to feed

G                                        C
And mine's like that dirt bike I wrapped around that tree



[Chorus 2:]

Am7                        F
Everything I own has got a dent

C                           
It's cracked or scratched, ripped or torn

G
Banged up or slightly bent

Am7                        F   
Why should my heart be any different?

C                 G             C
Everything that I own has got a dent

Am7           G
In the side, a hole in the back

Am7                  G
A big piece of junk, ready for the trash

Am7
Better day's gone

 G                  C 
Heart just keeps on beating anyway



[Chorus 3:]

Am7                        F
Everything I own has got a dent

C                           
It's cracked or scratched, ripped or torn

G
Banged up or slightly bent

Am7                        F   
Why should my heart be any different?

C                 G             C
Everything that I own has got a dent


[Ending:]

e|----0---0--------0---0--------3/8-7-5-3-5-3----------0---0-------0---0--------3/8-7-8-7-5-3-0-----|
B|------3---3-1------3---3-1------------------3-0-1------3---3-1-----3---3-1---------------------3--|
G|--------------0------------2----------------------0--------- 2- 0-----------2------------------0--|
D|--2------------------------3------5-3-2-3-2-----2------------  3------------3-------------3-2-----|
A|3-------------------------------------------2---3-------------------------------------------3-----|
E|----------------------------------------------3-------------------------------------------------3-|



Oh, big ol' dent


[Fade end]
E|----0---0--------0---0--------3/8-7-5-3-5-3----------0---0-------0---0--------3/8-7-8-7-5-3-0-----|
B|------3---3-1------3---3-1------------------3-0-1------3---3-1-----3---3-1---------------------3--|
G|--------------0------------2----------------------0--------- 2- 0-----------2------------------0--|
D|--2------------------------3------5-3-2-3-2-----2------------  3------------3-------------3-2-----|
A|3-------------------------------------------2---3-------------------------------------------3-----|
E|----------------------------------------------3-------------------------------------------------3-|

************************************

| /  Slide up

************************************

            
            
Suggest correction
Creating personal tab
Creating personal tab
You can edit any tab online and save it as your Personal.

You can edit, replace or remove any tab part or add personal notes – all changes will be seen only by you.

Personal tabs can be accessed anytime from any device, even offline.
Learn more »
Give kudos to tab author, rate the tab!
1 2 3 4 5
comments
print report bad tab
guest
You may want to rate the tab now too:
select rating
Wanna post a correction for this tab? Suggest correction