Oops, an error
Loading. Please wait.

Forever And Ever Amen Bass Tab

19 views 3 this week
no commentswrite comment
1 2 3 4 5
2 more votes to show rating
add to favorites
launch autoscroll
font size
0
reset
guitar tuner
Autoscroll
slow
fast
+/-
esc
set tempo
stop
Help us to improve Ultimate-Guitar.com Take our survey!
×
Author
Difficulty
novice
[Intro]

G|---------------------------------------------------------------------------|
D|---------------------------------------------------------------------------|
A|---5---5----5---5----------------------------------------------------------|
E|-----5---5----5---5--------------------------------------------------------|

[Verse 1] (x2)

G|---------|------------|---------|-------------|---------|---------|----------|---------------|
D|-----5---|------------|---------|-------------|---------|---7---7-|----------|---------------|
A|-5-----5-|-5-----5-5--|---5---5-|-5---5-------|---5---5-|-5---5---|-7---7----|---7---7-7---4-|
E|---5-----|---5--5-5-5-|-3---3---|---5---5-7-5-|-3---3---|---------|---7---7--|-5--------5-7--|

[Chorus]

G|---------|------------|---------|-------------|---------|---------|---------|---------------|
D|-----5---|------------|---------|-------------|---------|---7---7-|---------|---------------|
A|-5-----5-|-5-----5-5--|---5---5-|-5---5-------|---5---5-|-5---5---|-7---7---|---7---7-7---4-|
E|---5-----|---5--5-5-5-|-3---3---|---5---5-7-5-|-3---3---|---------|---7---7-|-5--------5-7--|

G|---------|------------|---------|----------|----------|---------|----------|----------------|
D|-----5---|------------|---------|----------|----------|-----5-5-|----------|----------------|
A|-5-----5-|-5-----5-5--|---5---5-|-7---7----|----------|-5-5-----|-7-7------|-5-5---5--------|
E|---5-----|---5--5-5-5-|-3---3---|---7---7--|-3-3--5-5-|---------|-----5-5--|--------5-7-5---|

[Verse 2] (x2)

G|---------|------------|---------|-------------|---------|---------|----------|---------------|
D|-----5---|------------|---------|-------------|---------|---7---7-|----------|---------------|
A|-5-----5-|-5-----5-5--|---5---5-|-5---5-------|---5---5-|-5---5---|-7---7----|---7---7-7---4-|
E|---5-----|---5--5-5-5-|-3---3---|---5---5-7-5-|-3---3---|---------|---7---7--|-5--------5-7--|

[Chorus]

G|---------|------------|---------|-------------|---------|---------|----------|---------------|
D|-----5---|------------|---------|-------------|---------|---7---7-|----------|---------------|
A|-5-----5-|-5-----5-5--|---5---5-|-5---5-------|---5---5-|-5---5---|-7---7----|---7---7-7---4-|
E|---5-----|---5--5-5-5-|-3---3---|---5---5-7-5-|-3---3---|---------|---7---7--|-5--------5-7--|

G|---------|------------|---------|----------|----------|---------|----------|----------------|
D|-----5---|------------|---------|----------|----------|-----5-5-|----------|----------------|
A|-5-----5-|-5-----5-5--|---5---5-|-7---7----|----------|-5-5-----|-7-7------|-5-5---5--------|
E|---5-----|---5--5-5-5-|-3---3---|---7---7--|-3-3--5-5-|---------|-----5-5--|--------5-7-5---|

[Outro]

G|---------|---------|----------|--------------|---------|---------|---------|-4-4-----|----------|
D|---------|-----5-5-|----------|--------------|---------|-----5-5-|---------|-----5-5-|----------|
A|-----5-5-|-5-5-----|-7-7------|-5-5---5------|-----5-5-|-5-5-----|-7-7-----|---------|-7-7------|
E|-3-3-----|---------|-----5-5--|--------5-7-5-|-3-3-----|---------|-----5-5-|---------|------5---|


My first tab. Should be pretty much 100%. Any improvements are welcome
Suggest correction
Give kudos to tab author, rate the tab!
1 2 3 4 5
comments
print report bad tab
guest
You may want to rate the tab now too:
select rating
Wanna post a correction for this tab? Suggest correction