Oops, an error
Loading. Please wait.

I Told You So Tab

275 views 1 this week
no commentswrite comment
1 2 3 4 5
please rate
add to favorites
launch autoscroll
font size
0
reset
how to read this tab
guitar tuner
Tab Pro tools
  • play this tab
  • loop segment
  • change instrument
  • show fretboard
  • metronome
×
Best way to learn
"I Told You So"
Autoscroll
slow
fast
+/-
esc
set tempo
stop
Contributor
Difficulty
advanced
-------------------------------------------------------------------------------
                             I Told You So - Randy Travis
-------------------------------------------------------------------------------
Tabbed by:Derrick Mason
E-mail:derrickmason3131@yahoo.com

Tuning: Standard E
  (Rhythm 1)
   A                  Bm7                Dsus              A
e|---------0--------|---------4--------|-----0-------0---|-----0-------------|
B|-------2----------|-------5----------|-------3-------0-|---------2---------|
G|-----2------------|-----6------------|---2-------1-----|-------2-----------|
D|---2--------------|---6--------------|-0-------2-------|---2---------------|
A|-0----------------|-4----------------|-----------------|-0-----------------|
E|------------------|------------------|-----------------|-------------------|
   Suppose I...       told  you that...  suppose I said..  home
   D                  A/C# Bm F#m        B7                Asus/G#
e|---------2--------|------------------|-2---------2-----|-4-----5-4p2p0-----|
B|-----3-------3----|-2----------------|-0-----0-----0---|-----3-------------|
G|---2---2---2---2--|-----4---2-----2--|-----2-----------|---2---------------|
D|-0----------------|---2---4-----4----|---1-------------|-------------------|
A|------------------|-4---2-----4------|-2-------2-------|-0-----------------|
E|------------------|---------2--------|-----------------|-------------------|
and suppose I cried.. finally learned..  tired of spend..  alone
   A                  Bm7                Dsus              A
e|---------0--------|---------4--------|-----0-------0---|-------------------|
B|-------2-----2----|-------5-----5----|-------3-------0-|-------2-----2-----|
G|-----2---------2--|-----6---------6--|---2-------1-----|-----2-----2---2---|
D|---2-------2------|---6-------6------|-0-------2-------|---2-----2---------|
A|-0----------------|-4----------------|-----------------|-0-----------------|
E|------------------|------------------|-----------------|-------------------|
if i told you...      all I ever...      killing me to..   away
   D                  A/C# Bm F#m        B7                E    (end rhythm 1)
e|---------2--------|------------------|-2---------2-----|---------0---------|
B|-----3-------3----|-2----------------|-0-----0-----0---|---------0---------|
G|---2---2---2---2--|-----4---2-----2--|-----2---------2-|-------1-1---------|
D|-0----------------|---2---4-----4----|---1-------------|-----2---2---------|
A|------------------|-4---2-----4------|-2-------2-------|---2-----2---------|
E|------------------|---------2--------|-----------------|-0-------0---------|
   tell me that...    would we cry...    would you simp..  say?
A                   C#m7     D Dsus D
I told you so, oh I told you so.
  Bm                                       E
I told you someday you would come crawling back
                          A      E
and asking me to take you in

  A                    C#m7   D Dsus D
I told you so, but you had to go,
                                                                                         
          Bm7                            E
Now I found somebody new and you will never break my heart in two

(play first time only):
   A
e|-0----------------|---------0--------|
B|-2-3-2-2/3---2-0--|-------2----------|
G|------------------|-----2------------|
D|------------------|---2--------------|
A|-2----------------|-0----------------|
E|------------------|------------------|

  again.
(play rhythm 1 during 2nd verse)

Outro:
   A
e|-0----------------|------------------|-0----------------|-0----------------|
B|-2-3-2-2/3--2-0---|-------3----------|-2-3-2-2/3--2-0---|-2----------------|
G|------------------|-----2------------|------------------|-2----------------|
D|------------------|---2--------------|------------------|-2----------------|
A|-0----------------|-0----------------|-0----------------|-0----------------|
E|------------------|------------------|------------------|------------------|

************************************

| /   slide up
| \   slide down
| h   hammer-on
| p   pull-off
| ~   vibrato
| +   harmonic
| x   Mute note
| b   Bend
| pb  Pre-bend
| br  Bend release
| pbr Pre-bend release
| brb Bend release bend

************************************
comments
We did not receive enough feedback on this tab! Please rate:
print report bad tab
1 2 3 4 5
I want to post or [tab]
guest
You may want to rate the tab now too:
select rating
Please do not post tabs as comments. Select "correction" instead!