Oops, an error
Loading. Please wait.

Just When I Needed You Most Chords

version 6
version 6

Whole song

64 views 3 this week
no commentswrite comment
1 2 3 4 5
3 more votes to show rating
add to favorites
launch autoscroll
font size
0
reset
transpose
0
reset
simplify chords
display chords
guitar tuner
Autoscroll
slow
fast
+/-
esc
set tempo
stop
Help us to improve Ultimate-Guitar.com Take our survey!
×
Author
Difficulty
intermediate
About this tab version
Whole song, closer to original arrangement. Was this info helpful? Yes No
Strumming
Whole Song 110 bpm
1
&
2
&
Play
Is this strumming pattern correct? Yes No
[Verse]
A
You packed in the morning and I
Amaj7
Stared out the window and I
A7                         D/F#
Struggled for something to say
D                            A
You left in the rain without closing the door
Bm                       E
  I didn't stand in your way

[Chorus]
A
But I miss you more than I
Amaj7
Missed you before and now
A7                       D/F#
Where I'll find comfort, God knows
       D      A
'Cause you..    left me
E                      A  B  C# D
Just when I needed you most
     A        E                      A
      (Left me, just when I needed you most)

[Verse]
A
Now most every morning I
Amaj7
Stare out the window and I
A7                          D/F#
Think about where you might be
D
I've written you letters
     A
That I'd like to send
Bm                            E
If you would just send one to me

[Chorus]
A
'Cause I need you more than I
Amaj7
Needed before and now
A7                       D/F#
Where I'll find comfort, God knows
       D      A
'Cause you..    left me
E                      A  B  C# D
Just when I needed you most
     A        E                      A
      (Left me, just when I needed you most)

[Instrumental]
    A             A             A            D                  A        Bm          E
e|-------------0-------------0-------------0------2-2-2-4--5-5------------------------------------|
B|--2-2-2-2--3----2-2-2-2--3----2-2-2-2--3----------------------2-0------0-0-0-0-2-3-2------------|
G|-------------------------------------------2--2-------------------2-2---------------------------|
D|2------------------------------------------0----0-----------------------------------------------|
A|--0-------------0-------------0-------------------------------0--------2------------------------|
E|-----------------------------------------------------------------------------------0------------|
    A             A             A            D                 A         E           A
e|-------------0-------------0-------------0-2-------------5----0---------------------------------|
B|--2-2-2-2--3----2-2-2-2--3----2-2-2-2--3-------------------------2---------0-2-0----------------|
G|-------------------------------------------------------------------------2-------2-2------------|
D|2------------------------------------------0-------------0-------------2------------------------|
A|--0-------------0-------------0-----------------------------0----------------------0------------|
E|-----------------------------------------------------------------------0------------------------|

[Verse]
A
You packed in the morning and I
Amaj7
Stared out the window and I
A7                         D/F#
Struggled for something to say
D                            A
You left in the rain without closing the door
Bm                       E
  I didn't stand in your way

[Chorus]
A
Now I love you more than I
Amaj7
Loved you before and now
A7                       D/F#
Where I'll find comfort, God knows
       D      A
'Cause you..    left me
E                      A  B  C# D
Just when I needed you most. Oh, yeah
       A
You..    left me, 
E                      A  B  C# D
Just when I needed you most. Oh, yeah
       A
You..    left me
E                      A
Just when I needed you most

[Outro]
Suggest correction
Give kudos to tab author, rate the tab!
1 2 3 4 5
comments
print report bad tab
guest
You may want to rate the tab now too:
select rating
Wanna post a correction for this tab? Suggest correction