Oops, an error
Loading. Please wait.

Flucht Nach Vorn Tab

842 views 3 this week
no commentswrite comment
1 2 3 4 5
please rate
add to favorites
launch autoscroll
font size
0
reset
how to read this tab
guitar tuner
Autoscroll
slow
fast
+/-
esc
set tempo
stop
Help us to improve Ultimate-Guitar.com Take our survey!
×
Artist: Rantanplan
Song  : Flucht nach vorn

Chorus
|----5----5----2---|
|----5----7----2---|
|----7----7----4---|
|----7----6----4---|
|----7----5----3---|
|----5----5----2---|

Laß dich von niemandem runterziehen. Laß dich von niemandem runterziehen

Lauf schnell, wenn du rennst und sie werden dich nicht kriegen

Bleib nicht stehen - Dreh dich nicht um Nicht zurück - nur nach vorn.

Laß dich von niemandem runterziehen

Verse
|----5----5----2----5----3------|
|----5----5----2----7----5------|
|----7----5----4----7----5------|
|----7----7----4----6----4------|
|----7----8----3----5----3------|
|----5----5----2----5----3------|

Denn Sie werden es versuchen. Unterjochen: darauf beruht hier doch alles - bloß buisness

Sie werden es niemals unterlassen, zu versuchen, dich zu schaffen

Stumm machen heißt: stumpf in Reihe geschaltet und leicht verwaltet

Da Sie sind was Sie sind - das establishment

Mit Nachdruck auf Konten von oben nach unten. Komm..renn mit davon

|----5----5----2---|
|----5----7----2---|
|----7----7----4---|
|----7----6----4---|
|----7----5----3---|
|----5----5----2---|

Laß dich von niemandem runterziehen. Laß dich von niemandem runterziehen

Lauf schnell, wenn du rennst und sie werden dich nicht kriegen

Bleib nicht stehen - Dreh dich nicht um Nicht zurück - nur nach vorn.

Laß dich von niemandem runterziehen

|----5----5----2----5----3------|
|----5----5----2----7----5------|
|----7----5----4----7----5------|
|----7----7----4----6----4------|
|----7----8----3----5----3------|
|----5----5----2----5----3------|

Solltest du schon unten sein, sieh zu das du wieder auf die Füße kommst

Seinen Lebenskampf gewinnt man allein. Nicht der Linie entlang vegetieren

Der Bladerunner jagt immer noch sich selbst und vor allem, von allem bullshit weit davon

Es gibt keinen Halt in dieser Welt und wenn, dann muß er von Innen kommen

Auf Flucht begegnet man sich selbst. Komm..renn mit davon

Bis ende
|----5----5----2---|
|----5----7----2---|
|----7----7----4---|
|----7----6----4---|
|----7----5----3---|
|----5----5----2---|

Laß dich von niemandem runterziehen. Laß dich von niemandem runterziehen

Lauf schnell, wenn du rennst und sie werden dich nicht kriegen

Bleib nicht stehen - Dreh dich nicht um Nicht zurück - nur nach vorn.

Laß dich von niemandem runterziehen

http://www.rantanplan-sucks.de/

corecctions to longboard.crew@gmx.de
www.bongloard.de.vu
Suggest correction
Give kudos to tab author, rate the tab!
1 2 3 4 5
comments
print report bad tab
guest
You may want to rate the tab now too:
select rating
Please do not post tabs as comments. Select "correction" instead!