Oops, an error
Loading. Please wait.

El Amor Es Triste tab

by Raphael
446 views 1 this week
no commentswrite comment
1 2 3 4 5
3 more votes to show rating
add to favorites
×
Save as Personal and add changes to this tab that will be seen only by you. Learn more ›
×
You can save this tab as Personal to edit and correct it or add notes. All changes will be seen only by you. Learn more »
launch autoscroll
font size
0
reset
how to read this tab
guitar tuner
edit
Autoscroll
slow
fast
+/-
esc
set tempo
stop
Am D Am D Am D Am D

Am     D         G       C
Gris, gris, mi amor es gris
Am          D        G        C
Cuando me encuentro lejos de ti
Am     D         G      C
Gris, gris, mi amor es gris
Am      F       E       Am
Si no te tengo cerca de mí


Am   D      G      C
Mi amor se vuelve azul
Am          D      G          C
Cuando tus manos puedo estrechar
Am   D      G       C
Mi amor se vuelve azul
Am              F        E      Am
Cuando en tus brazos me haces soñar

Am   D  E     F#m       D    A
El   amor siempre es de un color
C#m    Bm        D     E    A
Azul o gris y al final tú y yo

Am     D        G       C
Gris, gris, el día es gris
Am         D       G         C
Todo está gris en cuanto te vas
Am     D        G       C
Gris, gris, el día es gris
Am           F          E       Am
Todo es muy triste cuando no estás


Am  D  E     F#m       D    A
El  amor siempre es de un color
C#m    Bm        D     E    A
Azul o gris y al final tú y yo


Am     D        G       C
Gris, gris, el día es gris
Am           D       G        C
Cuando me encuentro lejos de ti
Am     D        G       C
Gris, gris, el día es gris
Am           F          E      Am
Todo es muy triste cuando no estás
Am           F          E       Am
Todo es muy triste cuando no estás

ACOMPAÑAMIEMTO DE LA CANCION CON REQUINTO:

     Am          D
e|-------------------------
B|------------------7------
G|-------5------7-----7----   SE REPITE 4 VECES
D|---7-----7.-7---7-----7.-
A|-7---7-------------------
E|-------------------------
   Am  D    G   C  Am    D    G       C  Am D    G     C  Am    F
e|------------------------------------------------------------------
B|--5.------------------------------------5.------------------------
G|-----7.-5-4---------5-4-5.-----------------7.-5-4---------5-4-5.--
D|-------------7-5.-7--------7-5-7-5-----------------7-5.-7---------
A|-----------------------------------5-7.---------------------------
E|------------------------------------------------------------------
     E    Am   Am  D    G   C  Am    D    G       C  Am D    G    C
e|------------|-----------------------------------------------------
B|------------|-5.------------------------------------5.------------
G|------------|----7.-5-4---------5-4-5.-----------------7.-5-4-----
D|-7-6-4-6-7.-|------------7-5.-7--------7-5-7-5-----------------7-5
A|------------|----------------------------------5-7.---------------
E|------------|-----------------------------------------------------
   Am    F   E     Am    A D   E    F#m   D   A C#m       Bm   D    E   A
e|---------------------|--------------------------------------------------
B|---------------------|-------5.----------7-7-5.------5------------------
G|---5-4-5.------------|-6.-7.----6---------------6.-6---6-4.-6-7.-7-4----
D|-7--------7-6-4-6-7.-|------------7-4.-4-----------------------------6-7
A|---------------------|--------------------------------------------------
E|---------------------|--------------------------------------------------
     Am           D
e|-------------------------
B|------------------7------
G|-------5------7-----7----   SE REPITE 2 VECES
D|---7-----7.-7---7-----7.-
A|-7---7-------------------
E|-------------------------
  Am  D    G   C  Am    D    G       C  Am D    G    C  Am    F
e|------------------------------------------------------------------
B|------------------------------------------------------------------
G|------------------------------------------------------------------
D|-2.-----------------------------------2.--------------------------
A|----5.-3-2---------3-2-3.----------------5.-3-2---------3-2-3-----
E|------------5-3.-5--------5-3-5-3.-0.------------5-3.-5-----------
     E    Am    A  D  E    F#m   D   A  C#m      Bm   D    E   A
e|------------|-----------------------------------------------------------
B|------------|-------5.----------7-7-5.------5---------------------------
G|------------|-6.-7.----6---------------6.-6---6-4.-6-7.-7-4-------------
D|------------|------------7-4.-4-----------------------------6-7.--------
A|------------|-----------------------------------------------------------
E|-5-4-2-4-5.-|-----------------------------------------------------------
     Am          D
e|-------------------------
B|------------------7------
G|-------5------7-----7----   SE REPITE CINCO VECES
D|---7-----7.-7---7-----7.-
A|-7---7-------------------


A LA TABLATURA QUE YA SE HABIA HECHO LE HICE UNA PEQUEÑA MODIFICACION AL
INICIO DE LA CANCION. TODO LO DEMAS ESTABA BIEN HECHO. SALUDOS A A.J.M. Y
TRIO LOS OLVERAS DE MINERAL DE LA REFORAMA, EL SR. CAMACHO YA SE RETIRO.

            
            
Suggest correction
Creating personal tab
Creating personal tab
You can edit any tab online and save it as your Personal.

You can edit, replace or remove any tab part or add personal notes – all changes will be seen only by you.

Personal tabs can be accessed anytime from any device, even offline.
Learn more »
Give kudos to tab author, rate the tab!
1 2 3 4 5
comments
print report bad tab
guest
Wanna post a correction for this tab? Suggest correction