Oops, an error
Loading. Please wait.

Closure chords

127 views 12 this week
no commentswrite comment
1 2 3 4 5
2 more votes to show rating
add to favorites
×
Save as Personal and add changes to this tab that will be seen only by you. Learn more ›
×
You can save this tab as Personal to edit and correct it or add notes. All changes will be seen only by you. Learn more »
launch autoscroll
font size
0
reset
transpose
0
reset
display chords
guitar tuner
edit
Autoscroll
slow
fast
+/-
esc
set tempo
stop
Strumming
There is no strumming pattern for this song yet. and get +5 IQ
[Intro]
  A                 D              A                E
E|-------0------0-|-------3--0---|-------0------0-|------0------0--|
B|----------2-----|-----3------3-|----------2-----|---------0------|
G|-----2------1---|---2----------|-----2------1---|-----1-----1----|
D|---2------------|-0------------|---2------------|----2-----------|
A|-0--------------|--------------|-0--------------|-2--------------|
E|----------------|--------------|----------------|----------------|

  A                 D              A                 E
E|-------0------0-|-------3--0----|-------0-----0--|--------0------|
B|----------2-----|-----3---3---3-|----------2-----|--------0------|
G|-----2------1---|---2------2----|-----2------1---|-----1--1------|
D|---2------------|-0-------------|---2------------|----2---2------|
A|-0--------------|---------------|-0--------------|-2------2------|
E|----------------|---------------|----------------|--------0------|

[Verse]
D                             A
You look so good it seems
D                             A       E
Never gonna let the boys know how you feel
              A       E     A
Let then know how you feel
D                       A
Your image to keep up
D                                    A       E
Never gonna let it slide never gonna give it up
               A       E        
Come on baby give it up

[Chorus]
G     A                     D                   
And I start to think as I'm passing yet by
G      A                     D                  
I dont like the way that I'm having to try
G              A                D                  
You think your just to good for anyone else
G           A                   D
I think you better take another look at yourself

[Instrumental]
G  A  D  D  G  A  D  D

[Chorus]
G     A                     D
And I start to think as I'm passing yet by
G      A                     D
I dont like the way that I'm having to try
G              A                D
You think your just to good for anyone else
G           A                   D
I think you better take another look at yourself
G           A                   D
I think you better take another look at yourself
G           A                   D
I think you better take another look at yourself


            
            
Suggest correction
Creating personal tab
Creating personal tab
You can edit any tab online and save it as your Personal.

You can edit, replace or remove any tab part or add personal notes – all changes will be seen only by you.

Personal tabs can be accessed anytime from any device, even offline.
Learn more »
Give kudos to tab author, rate the tab!
1 2 3 4 5
comments
print report bad tab
guest
You may want to rate the tab now too:
select rating
Wanna post a correction for this tab? Suggest correction