Oops, an error
Loading. Please wait.

California Brain tab

589 views 3 this week
no commentswrite comment
1 2 3 4 5
x 3
add to favorites
×
Save as Personal and add changes to this tab that will be seen only by you. Learn more ›
×
You can save this tab as Personal to edit and correct it or add notes. All changes will be seen only by you. Learn more »
launch autoscroll
font size
0
reset
how to read this tab
guitar tuner
edit
Autoscroll
slow
fast
+/-
esc
set tempo
stop
Author
Difficulty
-------------------------------------------------------------------------------
                             Rapscallions - California brain
-------------------------------------------------------------------------------
Tabbed by: Jorens P. [My first made tab]

Tuning: Standart EADGBe

Intro:

e|---------------------------------------------------------------------------|
B|---------------------------------------------------------------------------|
G|---------------------------------------------------------------------------|
D|-----12h14--------12h14--------12h14--------12h14--------12--12--12\10-----|
A|-------------14-----------12-----------10-----------12---------------------|
E|---------------------------------------------------------------------------|

e|---------------------------------------------------------------------------|
B|--------------------------------------15-----------------------------------|
G|---------------------------------12----------------------------------------|
D|-----12h14--------12h14--------14--14--------------------------------------|
A|-------------14-----------12-----------------------------------------------|
E|---------------------------------------------------------------------------| 

e|---------------------------------------------------------------------------|
B|---------------------------------------------------------------------------|
G|---------------------------------------------------------------------------|
D|-----12h14--------12h14--------12h14--------12h14--------12--12--12\10-----|
A|-------------14-----------12-----------10-----------12---------------------|
E|---------------------------------------------------------------------------| 

e|---------------------------------------------------------------------------|
B|--------------------------------------12-----------------------------------|
G|---------------------------------12----------------------------------------|
D|-----12h14--------12h14--------14--14--------------------------------------|
A|-------------14-----------12-----------------------------------------------|
E|---------------------------------------------------------------------------| 

Verse 1:

e|---------------------------------------------------------------------------|
B|---------------------------------------------------------------------------|
G|--12\9---11\7\5---------12\9---11\7\5--------12\9---11\7\5-----------------|
D|---------------------------------------------------------------------------|
A|---------------------------------------------------------------------------|
E|---------------------------------------------------------------------------|

e|---------------------------------------------------------------------------|
B|--------------------------------------------------------------10~-10~-10b~-|
G|--12\9---11\7\5---------12\9---11\7\5--------12\9---11\7\5-----------------|
D|---------------------------------------------------------------------------|
A|---------------------------------------------------------------------------|
E|---------------------------------------------------------------------------|

Chorus 1:

e|---------------------------------------------------------------------------|
B|---------------------------------------------------------------------------|
G|---------------------------------------------------------------------------|
D|-----12h14--------12h14--------12h14--------12h14--------12--12--12--10----|
A|-------------14-----------12-----------10-----------12---------------------|
E|---------------------------------------------------------------------------|

e|---------------------------------------------------------------------------|
B|---------------------------------------------------------------------------|
G|----------------------------99--1212--1414---------------------------------|
D|-----12h14--------12h14----------------------------------------------------|
A|-------------14-------------77--1010--1212---------------------------------|
E|---------------------------------------------------------------------------| 

e|---------------------------------------------------------------------------|
B|---------------------------------------------------------------------------|
G|---------------------------------------------------------------------------|
D|-----12h14--------12h14--------12h14--------12h14--------12--12--12--10----|
A|-------------14-----------12-----------10-----------12---------------------|
E|---------------------------------------------------------------------------|

e|---------------------------------------------------------------------------|
B|---------------------------------------------------------------------------|
G|----------------------------99--1212--1919---------------------------------|
D|-----12h14--------12h14----------------------------------------------------|
A|-------------14-------------77--1010--1717---------------------------------|
E|---------------------------------------------------------------------------| 

Verse 2:

e|---------------------------------------------------------------------------|
B|---------------------------------------------------------------------------|
G|--12\9---11\7\5---------12\9---11\7\5--------12\9---11\7\5-----------------|
D|---------------------------------------------------------------------------|
A|---------------------------------------------------------------------------|
E|---------------------------------------------------------------------------|

e|---------------------------------------------------------------------------|
B|--------------------------------------------------------------10~-10~-10b~-|
G|--12\9---11\7\5---------12\9---11\7\5--------12\9---11\7/12----------------|
D|---------------------------------------------------------------------------|
A|---------------------------------------------------------------------------|
E|---------------------------------------------------------------------------|

Chorus 2:

e|---------------------------------------------------------------------------|
B|---------------------------------------------------------------------------|
G|---------------------------------------------------------------------------|
D|-----12h14--------12h14--------12h14--------12h14--------12--12--12--10----|
A|-------------14-----------12-----------10-----------12---------------------|
E|---------------------------------------------------------------------------|

e|---------------------------------------------------------------------------|
B|---------------------------------------------------------------------------|
G|----------------------------99--1212--1414---------------------------------|
D|-----12h14--------12h14----------------------------------------------------|
A|-------------14-------------77--1010--1212---------------------------------|
E|---------------------------------------------------------------------------| 

e|---------------------------------------------------------------------------|
B|---------------------------------------------------------------------------|
G|---------------------------------------------------------------------------|
D|-----12h14--------12h14--------12h14--------12h14--------12--12--12--10----|
A|-------------14-----------12-----------10-----------12---------------------|
E|---------------------------------------------------------------------------|

e|---------------------------------------------------------------------------|
B|---------------------------------------------------------------------------|
G|----------------------------99--1212--1919---------------------------------|
D|-----12h14--------12h14----------------------------------------------------|
A|-------------14-------------77--1010--1717---------------------------------|
E|---------------------------------------------------------------------------| 

e|---------------------------------------------------------------------------|
B|---------------------------------------------------------------------------|
G|---------------------------------------------------------------------------|
D|-----12h14--------12h14--------12h14--------12h14--------12--12--12--10----|
A|-------------14-----------12-----------10-----------12---------------------|
E|---------------------------------------------------------------------------|

e|---------------------------------------------------------------------------|
B|---------------------------------------------------------------------------|
G|----------------------------99--1212--1414---------------------------------|
D|-----12h14--------12h14----------------------------------------------------|
A|-------------14-------------77--1010--1212---------------------------------|
E|---------------------------------------------------------------------------| 

e|---------------------------------------------------------------------------|
B|---------------------------------------------------------------------------|
G|---------------------------------------------------------------------------|
D|-----12h14--------12h14--------12h14--------12h14--------12--12--12--10----|
A|-------------14-----------12-----------10-----------12---------------------|
E|---------------------------------------------------------------------------|

e|---------------------------------------------------------------------------|
B|---------------------------------------------------------------------------|
G|----------------------------99--1212--1919---------------------------------|
D|-----12h14--------12h14----------------------------------------------------|
A|-------------14-------------77--1010--1717---------------------------------|
E|---------------------------------------------------------------------------| 

Solo:

e|---------19(x10)-14(x6)---------15(x6)-14(x10)-15(x6)-14(x4)---------------|
B|--17(x6)----------------15(x10)-------------------------------15(x6)-------|
G|---------------------------------------------------------------------------|
D|---------------------------------------------------------------------------|
A|---------------------------------------------------------------------------|
E|---------------------------------------------------------------------------|

e|---------19(x10)-14(x6)---------15(x6)-14(x10)-15(x6)-14(x4)---------------|
B|--17(x6)----------------15(x10)-------------------------------15(x6)-------|
G|---------------------------------------------------------------------------|
D|---------------------------------------------------------------------------|
A|---------------------------------------------------------------------------|
E|---------------------------------------------------------------------------|

e|---------19(x10)-14(x6)---------15(x6)-14(x10)-15(x6)-14(x4)---------------|
B|--17(x6)----------------15(x10)-------------------------------15(x6)-------|
G|---------------------------------------------------------------------------|
D|---------------------------------------------------------------------------|
A|---------------------------------------------------------------------------|
E|---------------------------------------------------------------------------|

e|---------19(x10)-14(x6)---------15(x6)-14(x10)-15(x6)-14(x4)---------------|
B|--17(x6)----------------15(x10)-------------------------------15(x6)-------|
G|---------------------------------------------------------------------------|
D|---------------------------------------------------------------------------|
A|---------------------------------------------------------------------------|
E|---------------------------------------------------------------------------|


e|-12---------14---------15--------------17----17----17----17--19p17-20-17---|
B|-----15-15b----17-17b-----19-19b---20b---20b---20b---20b-----------------17|
G|---------------------------------------------------------------------------|
D|---------------------------------------------------------------------------|
A|---------------------------------------------------------------------------|
E|---------------------------------------------------------------------------|



e|-12---------14---------15---------17-19-17----------17-19-17---------------|
B|-----15-15b----17-17b-----19-19b-----------20-17-20----------20-17-20------|
G|---------------------------------------------------------------------------|
D|---------------------------------------------------------------------------|
A|---------------------------------------------------------------------------|
E|---------------------------------------------------------------------------|


e|-17-19-17------------------------------------------------------------------|
B|----------20-17-20-20-20b-20~~~--------------------------------------------|
G|---------------------------------------------------------------------------|
D|---------------------------------------------------------------------------|
A|---------------------------------------------------------------------------|
E|---------------------------------------------------------------------------|

e|---------------------------------------------------------------------------|
B|---------------------------------------------------------------------------|
G|-----------------------------------11/12--12-12-12/14--14-14-14-12-----12--|
D|----------------------12/14--14-14--------------------------------14-12--14|
A|-12/14--14/17--12/14-------------------------------------------------------|
E|---------------------------------------------------------------------------|

e|------12----12----12----12----12----12----12----12----12----12----12----12-|
B|----12----12----12----12----12----12----12----12----12----12----12----12---|
G|-14b---14b---14b---14b---14b---14b---14b----14b---14b---14b---14b---14b----|
D|---------------------------------------------------------------------------|
A|---------------------------------------------------------------------------|
E|---------------------------------------------------------------------------|

e|---------------------------------------------------------------------------|
B|--15p12--------------------------------------------------------------------|
G|--------14-12-14-14-14-12--------------------------------------------------|
D|---------------------------------------------------------------------------|
A|---------------------------------------------------------------------------|
E|---------------------------------------------------------------------------|

e|-----14-15-14-15-17-19-16-18-20-17-19-20-20-21-21-21b~~~-------------------|
B|--17-----------------------------------------------------------------------|
G|---------------------------------------------------------------------------|
D|---------------------------------------------------------------------------|
A|---------------------------------------------------------------------------|
E|---------------------------------------------------------------------------|

Chorus 3:

e|---------------------------------------------------------------------------|
B|---------------------------------------------------------------------------|
G|---------------------------------------------------------------------------|
D|-----12h14--------12h14--------12h14--------12h14--------12--12--12--10----|
A|-------------14-----------12-----------10-----------12---------------------|
E|---------------------------------------------------------------------------|

e|---------------------------------------------------------------------------|
B|---------------------------------------------------------------------------|
G|----------------------------99--1212--1414---------------------------------|
D|-----12h14--------12h14----------------------------------------------------|
A|-------------14-------------77--1010--1212---------------------------------|
E|---------------------------------------------------------------------------| 

e|---------------------------------------------------------------------------|
B|---------------------------------------------------------------------------|
G|---------------------------------------------------------------------------|
D|-----12h14--------12h14--------12h14--------12h14--------12--12--12--10----|
A|-------------14-----------12-----------10-----------12---------------------|
E|---------------------------------------------------------------------------|

e|---------------------------------------------------------------------------|
B|---------------------------------------------------------------------------|
G|----------------------------99--1212--1919---------------------------------|
D|-----12h14--------12h14----------------------------------------------------|
A|-------------14-------------77--1010--1717---------------------------------|
E|---------------------------------------------------------------------------|

Outro:

e|---------------------------------------------------------------------------|
B|---------------------------------------------------------------------------|
G|---------------------------------------------------------------------------|
D|-----12h14--------12h14--------12h14--------12h14--------12--12--12--10----|
A|-------------14-----------12-----------10-----------12---------------------|
E|---------------------------------------------------------------------------|

e|---------------------------------------------------------------------------|
B|---------------------------------------------------------------------------|
G|----------------------------99--1212--1414---------------------------------|
D|-----12h14--------12h14----------------------------------------------------|
A|-------------14-------------77--1010--1212---------------------------------|
E|---------------------------------------------------------------------------| 

e|---------------------------------------------------------------------------|
B|---------------------------------------------------------------------------|
G|---------------------------------------------------------------------------|
D|-----12h14--------12h14--------12h14--------12h14--------12--12--12--10----|
A|-------------14-----------12-----------10-----------12---------------------|
E|---------------------------------------------------------------------------|

e|---------------------------------------------------------------------------|
B|---------------------------------------------------------------------------|
G|----------------------------9--12--19--------------------------------------|
D|-----12h14--------12h14----------------------------------------------------|
A|-------------14-------------7--10--17--------------------------------------|
E|---------------------------------------------------------------------------|
 



************************************

| /   slide up
| \   slide down
| h   hammer-on
| p   pull-off
| ~   vibrato
| +   harmonic
| x   Mute note
| b   Bend
| pb  Pre-bend
| br  Bend release
| pbr Pre-bend release
| brb Bend release bend

************************************
Suggest correction
Creating personal tab
Creating personal tab
You can edit any tab online and save it as your Personal.

You can edit, replace or remove any tab part or add personal notes – all changes will be seen only by you.

Personal tabs can be accessed anytime from any device, even offline.
Learn more »
Give kudos to tab author, rate the tab!
1 2 3 4 5
comments
print report bad tab
guest
You may want to rate the tab now too:
select rating
Wanna post a correction for this tab? Suggest correction