Oops, an error
Loading. Please wait.

I Believe Tab

974 views 1 this week
no commentswrite comment
1 2 3 4 5
please rate
add to favorites
launch autoscroll
font size
0
reset
how to read this tab
guitar tuner
Autoscroll
slow
fast
+/-
esc
set tempo
stop
Help us to improve Ultimate-Guitar.com Take our survey!
×
Author
Difficulty
intermediate
Song: Rapture Ruckus
Email: guitar_guy18@hotmail.com
Tabbed By: Bullet4Myself

One of Rapture's latest songs from the album 'I Believe'

|-----------------------------------------------------|
|-----------------------------------------------------|
|--10---10----9~---9---10-------12------9h10----------|
|-----0-----0--------0-----0-0------0-0---------------|
|-----------------------------------------------------|
|-----------------------------------------------------|
The catchy little riff at the start.. ^^^

|-----------------------------------------------------|
|-----------------------------------------------------|
|-------10----9----10--3~------10----------10--9------|
|----7------7----7------------------------------------|
|-5------------------------3---------3--7-------------|
|-----------------------------------------------------|
Then this pretty much throughout the entire song..^^^

Thanks and enjoy! =]
Suggest correction
Give kudos to tab author, rate the tab!
1 2 3 4 5
comments
print report bad tab
guest
You may want to rate the tab now too:
select rating
Please do not post tabs as comments. Select "correction" instead!