Oops, an error
Loading. Please wait.

Thank You Tab

version 1
version 1

Whole song

780 views 1 this week
no commentswrite comment
1 2 3 4 5
3 more votes to show rating
add to favorites
launch autoscroll
font size
0
reset
how to read this tab
guitar tuner
×
Best way to learn
"Thank You"
Autoscroll
slow
fast
+/-
esc
set tempo
stop
Author
Difficulty
  follow
novice
-------------------------------------------------------------------------------
                             THANK YOU - Rapture Ruckus
-------------------------------------------------------------------------------
Tabbed by: Araxia
Email: Childofgodforever87@hotmai;.com

Tuning: EADGBe

e|---------------------------------------------------------------------------|
B|---------------------------------------------------------------------------|
G|---------------------------------------9-----------------------------------|
D|-----------------15----------------------------------12--------------------|
A|---------12-------------12------------------10-----------------------------|
E|--10-----------------------------8-----------------------------------------|

e|---------------------------------------------------------------------------|
B|---------------------------------------------------------------------------|
G|--------------------------------------------------------------7------------|
D|---12-----------------------12---------------------------------------------|
A|---------8------------8----------8---------------------8----------8--------|
E|------------------------------------------------6--------------------------|

e|---------------------------------------------------------------------------|
B|---------------------------------------------------------------------------|
G|---------9-10--------------------------------------------------------------|
D|---------------------------------------------------------------------------|
A|---------------------------------------------------------------------------|
E|---8-----------------------------------------------------------------------|

Pretty much, listen to the song to find the timing and if you think you can tab it 
please do that, so that people will have more resources to learn the song.
Suggest correction
Give kudos to tab author, rate the tab!
1 2 3 4 5
comments
print report bad tab
guest
You may want to rate the tab now too:
select rating
Wanna post a correction for this tab? Suggest correction