Oops, an error
Loading. Please wait.

Inhale Tab

553 views 3 this week
no commentswrite comment
1 2 3 4 5
2 more votes to show rating
add to favorites
launch autoscroll
font size
0
reset
how to read this tab
guitar tuner
Autoscroll
slow
fast
+/-
esc
set tempo
stop
Help us to improve Ultimate-Guitar.com Take our survey!
×
Difficulty
Tuning
intermediate
D# G# C# F# A# D#
-----------------------------------------------------------------
     INHALE - Rarity
-----------------------------------------------------------------

Song: https://www.youtube.com/watch?v=Vjzx9GqskU4

Tuning: D# G# C# F# A# D#

[Intro]

Part A (Both Guitars)
D#|------------------|
A#|------------------|
F#|------------------|
C#|7-x-x-x-x-7-7-7-7-|
G#|5-x-x-x-x-5-5-5-5-|
D#|6-x-x-x-x-6-6-6-6-|
   v v ^ v ^ v ^ ^ v

Part B (One Guitar)
D#|------------|
A#|------------|
F#|------------|
C#|x-x-7-7-7-7-|
G#|x-x-5-5-5-5-|
D#|x-x-6-6-6-6-|
   v v v ^ ^ v

Part A (Both Guitars)
D#|------------------|
A#|------------------|
F#|------------------|
C#|7-x-x-x-x-7-7-7-7-|
G#|5-x-x-x-x-5-5-5-5-|
D#|6-x-x-x-x-6-6-6-6-|
   v v ^ v ^ v ^ ^ v

Part C (One Guitar)
D#|-----------------|
A#|-----------------|
F#|-----------------|
C#|----7/10\7-5-----|
G#|--5----------7h8-|
D#|6----------------|

Part D (Both Guitars)
D#|-----------------|
A#|-----------------|
F#|-----------------|
C#|3-(3)----------3-|
G#|3-(3)----------3-|
D#|1-(1)----------1-|

Part A (One Guitar)
D#|----------------|
A#|----------------|
F#|----------------|
C#|x-x-x-x-7-7-7-7-|
G#|x-x-x-x-5-5-5-5-|
D#|x-x-x-x-6-6-6-6-|
   v ^ v ^ v ^ ^ v

Part E (Both Guitars)
D#|-----------------|
A#|-----------------|
F#|-----------------|
C#|3--3-3-3-3-3-2---|
G#|3--3-3-3-3-3-3---|
D#|1--1-1-1-1-1-1---|
pm    . . . . . 

Lick thing
(One Guitar)
D#|------|
A#|------|
F#|------|
C#|------|
G#|--3p2-|
D#|1-----|
pm .


[Verse 1]

Riff 1 (Part A)
D#|----------------------------|
A#|----------------------------|
F#|----------------------------|
C#|7-7-7-7-5-3-5-5-5-3-3-5-5-5-|
G#|5-5-5-5-5-x-x-x-x-x-x-x-x-x-|
D#|6-6-6-6-3-1-3-3-3-1-1-3-3-3-|

Riff 1 (Part B)
D#|-----------------------------|
A#|-----------------------------|
F#|-----------------------------|
C#|7-7-7-7-10-3-5-5-5-3-3-5-5-5-|
G#|5-5-5-5-7--x-x-x-x-x-x-x-x-x-|
D#|6-6-6-6-8--1-3-3-3-1-1-3-3-3-|

Riff 2 (First three mutes are one guitar)
D#|------------------------------------------------|
A#|------------------------------------------------|
F#|------------------------------------------------|
C#|x-x-x-7-7-7-x-x-x-7-7-7-x-x-x-3-3-3-x-x-x-3-3-3-|
G#|x-x-x-5-5-5-x-x-x-5-5-5-x-x-x-3-3-3-x-x-x-3-3-3-|
D#|x-x-x-6-6-6-x-x-x-6-6-6-x-x-x-1-1-1-x-x-x-1-1-1-|
   v v v v ^ ^ v v v v ^ ^ v v v v ^ ^ v v v v ^ ^

Riff 1 (Part A)
D#|----------------------------|
A#|----------------------------|
F#|----------------------------|
C#|7-7-7-7-5-3-5-5-5-3-3-5-5-5-|
G#|5-5-5-5-5-x-x-x-x-x-x-x-x-x-|
D#|6-6-6-6-3-1-3-3-3-1-1-3-3-3-|

Riff 1 (Part B)
D#|-----------------------------|
A#|-----------------------------|
F#|-----------------------------| 
C#|7-7-7-7-10-3-5-5-5-3-3-5-5-5-|
G#|5-5-5-5-7--x-x-x-x-x-x-x-x-x-|
D#|6-6-6-6-8--1-3-3-3-1-1-3-3-3-|

Riff 3 (Tip: Learn the chords first and then add the mutes)
D#|--------------------------------------------------------|
A#|--------------------------------------------------------|
F#|--------------------------------------------------------|
C#|7\-x-x-x-5-x-3-x-x-10--x-x-7-7-x-x-x-5-x-3-x-10-x-7-x-x-|
G#|5\-x-x-x-5-x-3-x-x-7---x-x-5-5-x-x-x-5-x-3-x-7--x-x-x-x-|
D#|6\-x-x-x-3-x-1-x-x-8---x-x-6-6-x-x-x-3-x-1-x-8--x-5-x-x-|


[Chorus 1]
                                                    
D#|--------------------------------------------------|
A#|--------------------------------------------------|
F#|--------------------------------------------------| X2  
C#|7-7--7-7-10-10-10--10-10-10-3-3-3-3-2-3-3-2-3-3-3-|
G#|5-5--5-5-7--7--7---7--7--7--3-3-3-3-3-3-3-3-3-3-3-|
D#|6-6--6-6-8--8--8---8--8--8--1-1-1-1-1-1-1-1-1-1-1-|
   v v  ^ v ^  ^  v   ^  v  ^  v v ^ v ^ v ^ v ^ v ^


[Post-Chorus]

(Both Guitars)
D#|------------------|
A#|------------------|
F#|------------------|
C#|7-x-x-x-x-7-7-7-7-|
G#|5-x-x-x-x-5-5-5-5-|
D#|6-x-x-x-x-6-6-6-6-|
   v v ^ v ^ v ^ ^ v

(One Guitar)
D#|-----------------|
A#|-----------------|
F#|-----------------|
C#|----7/10\7-5-----|
G#|--5----------7h8-|
D#|6----------------|

(Both Guitars)
D#|---------|
A#|---------|
F#|---------|
C#|7--7-5-5-|
G#|5--5-5-5-|
D#|6--6-3-1-|

(One Guitar - EQ Effect)
D#|----------------|
A#|----------------|
F#|----------------|
C#|----------------|
G#|----------------|
D#|1-3-3-1-1-3-3-3-|


[Verse 2]

Riff 1 (Part A)
D#|----------------------------|
A#|----------------------------|
F#|----------------------------|
C#|7-7-7-7-5-3-5-5-5-3-3-5-5-5-|
G#|5-5-5-5-5-x-x-x-x-x-x-x-x-x-|
D#|6-6-6-6-3-1-3-3-3-1-1-3-3-3-|

Riff 1 (Part B)
D#|-----------------------------|
A#|-----------------------------|
F#|-----------------------------|
C#|7-7-7-7-10-3-5-5-5-3-3-5-5-5-|
G#|5-5-5-5-7--x-x-x-x-x-x-x-x-x-|
D#|6-6-6-6-8--1-3-3-3-1-1-3-3-3-|

Riff 3
D#|--------------------------------------------------------|
A#|--------------------------------------------------------|
F#|--------------------------------------------------------|
C#|7\-x-x-x-5-x-3-x-x-10--x-x-7-7-x-x-x-5-x-3-x-10-x-7-x-x-|
G#|5\-x-x-x-5-x-3-x-x-7---x-x-5-5-x-x-x-5-x-3-x-7--x-x-x-x-|
D#|6\-x-x-x-3-x-1-x-x-8---x-x-6-6-x-x-x-3-x-1-x-8--x-5-x-x-|


[Chorus 2]
                                                    
D#|--------------------------------------------------|
A#|--------------------------------------------------|
F#|--------------------------------------------------| X4  
C#|7-7--7-7-10-10-10--10-10-10-3-3-3-3-2-3-3-2-3-3-3-|
G#|5-5--5-5-7--7--7---7--7--7--3-3-3-3-3-3-3-3-3-3-3-|
D#|6-6--6-6-8--8--8---8--8--8--1-1-1-1-1-1-1-1-1-1-1-|
   v v  ^ v ^  ^  v   ^  v  ^  v v ^ v ^ v ^ v ^ v ^


[Bridge]

(Clean)
D#|------------------------------------|
A#|------------------------------------|
F#|------------------------------------| x3
C#|----7--------5------2b-------2b-3/5-|
G#|--5----0---5----3------3---3--------|
D#|6--------3--------1------1----------|

(Clean)            (Distortion)
D#|--------------| D#|------------------| 
A#|--------------| A#|------------------|
F#|--------------| F#|------------------|
C#|----7------5--| C#|2-2b-2-2-2-2b-2-2-|
G#|--5------5----| G#|3-3--3-3-3-3--3-3-|
D#|6------3------| D#|1-1--1-1-1-1--1-1-|
                      v v  ^ v v v  ^ v

LEAVE ME ALONE IN MY ROOOOOOOOM
D#|--------------------------------------|
A#|--------------------------------------|
F#|--------------------------------------| X4
C#|7-7-7-7-5-5-5-5-5-5-2-2b-2-2-2-2b-2-2-|
G#|5-5-5-5-5-5-5-5-5-5-3-3--3-3-3-3--3-3-|
D#|6-6-6-6-3-3-3-3-3-3-1-1--1-1-1-1--1-1-|
   v v ^ v ^ ^ v ^ v ^ v v  ^ v v v  ^ v

(One Guitar)
D#|-----------------|
A#|-----------------|
F#|-----------------|
C#|----7/10\7-5-----|
G#|--5----------7h8-|
D#|6----------------|


[Chorus 2]
                                                    
D#|--------------------------------------------------|
A#|--------------------------------------------------|
F#|--------------------------------------------------| X4  
C#|7-7--7-7-10-10-10--10-10-10-3-3-3-3-2-3-3-2-3-3-3-|
G#|5-5--5-5-7--7--7---7--7--7--3-3-3-3-3-3-3-3-3-3-3-|
D#|6-6--6-6-8--8--8---8--8--8--1-1-1-1-1-1-1-1-1-1-1-|
   v v  ^ v ^  ^  v   ^  v  ^  v v ^ v ^ v ^ v ^ v ^


[Breakdown]

I WONT FADE OUT!!!!!!
D#|--------------------------------------------|
A#|--------------------------------------------|
F#|--------------------------------------------|
C#|7\-x-x-x-5-x-3-x-x-10--x-x-7-7-x-x-x-5-x-3--|
G#|5\-x-x-x-5-x-3-x-x-7---x-x-5-5-x-x-x-5-x-3--|
D#|6\-x-x-x-3-x-1-x-x-8---x-x-6-6-x-x-x-3-x-1--|

D#|--------------------------------------------------------|
A#|--------------------------------------------------------|
F#|--------------------------------------------------------|
C#|7\-------5---3-----10--x-x-7-7-x-x-x-5-x-3-x-10-x-7-x-x-|
G#|5\-------5---3-----7---x-x-5-5-x-x-x-5-x-3-x-7--x-x-x-x-|
D#|6\-------3---1-----8---x-x-6-6-x-x-x-3-x-1-x-8--x-5-x-x-|

D#|--------------------------------------------------------|
A#|--------------------------------------------------------|
F#|--------------------------------------------------------|
C#|7\-x-x-x-5-x-3-x-x-10--x-x-7-7-x-x-x-5-x-3-x-10-x-7-x-x-|
G#|5\-x-x-x-5-x-3-x-x-7---x-x-5-5-x-x-x-5-x-3-x-7--x-x-x-x-|
D#|6\-x-x-x-3-x-1-x-x-8---x-x-6-6-x-x-x-3-x-1-x-8--x-5-x-x-|

D#|---------------------------------------------------------|
A#|---------------------------------------------------------|
F#|---------------------------------------------------------|
C#|7\-x-x-x-5-x-3-x-x-10-10—10-10-----x-x-x-5-3-10-10-7-(7)-|
G#|5\-x-x-x-5-x-3-x-x-7--7--7--7------x-x-x-5-3-7--7--x-----|
D#|6\-x-x-x-3-x-1-x-x-8--8--8--8--0-0-x-x-x-3-1-8--8--5-(5)-|
                              BASS^ ^

 
************************************

| ^    up stroke
| v    down stroke
| x    Dead note
| (n)  Ghost note
| h    Hammer-on
| p    Pull-off
| b    Bend
| /    Slide up
| \    Slide down
| .    Palm mute

************************************
Suggest correction
Give kudos to tab author, rate the tab!
1 2 3 4 5
comments
print report bad tab
guest
You may want to rate the tab now too:
select rating
Wanna post a correction for this tab? Suggest correction