Oops, an error
Loading. Please wait.

Life Is A Highway Chords

version 4
version 4

Whole song

Interactive

6,664 views 552 this week
2 commentsread comments
1 2 3 4 5
x 3
add to favorites
launch autoscroll
font size
0
reset
transpose
0
reset
display chords
guitar tuner
backing track
0:00
0:00
×
Best way to learn
"Life Is A Highway"
Autoscroll
slow
fast
+/-
esc
set tempo
stop
Author
Difficulty
novice
Life Is A Highway by Rascal Flatts
Standard Tuning 

Intro:

e|--13-----------------------------------------------------------------------|
B|--10-----------------------------------------------------------------------|
G|--10-----------------------------------------------------------------------|
D|---------------------------------------------------------------------------|
A|---------------------------------------------------------------------------|
E|---------------------------------------------------------------------------|

A - C - Bb
Bb - A - F
Bb - A - C
Bb - A - C

A - C - Bb
Bb - A - F
Bb - A - C
Bb - A - C

Lick:
e|---------------------10--8--6--8--5----------------------------------------|
B|----6--8--8b10b8--6--------------------------------------------------------|
G|--5------------------------------------------------------------------------|
D|---------------------------------------------------------------------------|
A|---------------------------------------------------------------------------|
E|---------------------------------------------------------------------------|


Verse:

Bb - F - C - C
Bb - F - C - C

"I won't hesitate.."
D - C - Bb - G

Chorus:

A - C - Bb
Bb - A - F
Bb - A - C
Bb - A - C

A - C - Bb
Bb - A - F
Bb - A - C
Bb - A - C

REPEAT VERSE
REPEAT CHORUS x2

Bridge 1:
A - Bb - D - C
A - Bb - D - C

Guitar Solo:
A - C - Bb
Bb - A - F
Bb - A - C
Bb - A - C
A - C - Bb
Bb - A - F
Bb - A - C
Bb - A - C

Bridge 2:
A - C - Bb - G - G

REPEAT 1st SET OF CHORUS (ACCAPELLA)

REPEAT CHORUS

LYRICS:

Life's like a road that you travel on
There's one day here and the next day gone
Sometimes you bend, sometimes you stand
Sometimes you turn your back to the wind

There's a world outside every darkened door
Where blues won't haunt you anymore
For the brave are free and lovers soar
Come ride with me to the distant shore

We won't hesitate
To break down the garden gate
There's not much time left today, yeah

Life is a highway, I wanna ride it
All night long
If you're going my way, I wanna drive it
All night long

Through all these cities and all these towns
It's in my blood and it's all around
I love you now like I loved you then
This is the road and these are the hands
From Mozambique to those Memphis nights
The Khyber Pass to Vancouver's lights
They knock me down and back up again
You're in my blood, I'm not a lonely man

There's no load I can't hold
The road's so rough this I know
I'll be there when the light comes in
Just tell 'em we're survivors

Life is a highway, I wanna ride it
All night long
If your going my way, I wanna drive it

Gimme, Gimme, Gimme, Gimme, yeah

Life is a highway, I wanna ride it
All night long (mmmm yeah)
If your going my way, I wanna drive it
All night long

There was a distance between you and I
(between you and I)
A misunderstanding once
But now, we look it in the eye

Ooooo...Yeah gimme some mowah!

There ain't no load that I can't hold
The road's so rough this I know
I'll be there when the light comes in
Just tell 'em we're survivors

Life is a highway, I wanna ride it
All night long (all night long, yeah hey)
If your going my way, I wanna drive it
All night long

Life is a highway, I wanna ride it
All night long
If your going my way, I wanna drive it
All night long

Life is a highway, I wanna ride it
All night long
If your going my way, I wanna drive it
All night long

Gimme, Gimme, Gimme, Gimme some more, yeah

..

Just Listen to the Song for timing and strumming patterns :)
Suggest correction
Give kudos to tab author, rate the tab!
1 2 3 4 5
comments
print report bad tab
2 comments total.
0 reply
andreasjacobs 10 Jan 05, 2015 05:15 AM

Lack of formatting. It's extremely hard to find out when to play what, because I have to sit and figure out when I play which chords, becaues I'm unable to scroll up and down every time there's a chord change. Can be fixed tho. By the way the intro thingy thing goes

e ---------------------13-------------------------------------------
H ----------------------13------------------------------------------
G ----------------------14-------------------------------------------
D ----------------------15-------------------------------------------
A --------------------------------------------------------------------
E --------------------------------------------------------------------

0 reply
AbigailDufrin 84 Oct 20, 2015 05:29 AM

each chord needs to go with the words above! Honestly, not a very good system. Plus, the chords aren't the greatest either

guest
You may want to rate the tab now too:
select rating
Wanna post a correction for this tab? Suggest correction