Oops, an error
Loading. Please wait.

Prayin For Daylight Tab

5,306 views 1 this week
2 commentsread comments
1 2 3 4 5
x 3
add to favorites
launch autoscroll
font size
0
reset
how to read this tab
guitar tuner
Autoscroll
slow
fast
+/-
esc
set tempo
stop
Help us to improve Ultimate-Guitar.com Take our survey!
×
Author
Rascal Flatts - Prayin' For Daylight
**POWERCHORD VERSION**
Tuning - Standard
tabbed by grptertius

Intro:
e------------------------------------------------|
B------------------------------------------------|
G--------------4/5-5-5-------------6/7-7-7-7-7---|
D--4---5-5-5---4/5-5-5---6/7-7-7---6/7-7-7-7-7-4-|
A--4---5-5-5---2/3-3-3---6/7-7-7---4/5-5-5-5-7-4-|
E--2---3-3-3-------------4/5-5-5---------------2-|

e-------------------------------------------|
B-------------------------------------------|
G---------4/5-5-5-------------6/7-7-7-7-7---|
D-5-5-5---4/5-5-5---6/7-7-7---6/7-7-7-7-7-4-|
A-5-5-5---2/3-3-3---6/7-7-7---4/5-5-5-5-7-4-|
E-3-3-3-------------4/5-5-5---------------2-|

Verse:
e-------------------------------------------|
B-------------------------------------------|
G------------4/5-5-5-------------6/7-7-7----|
D--4/5-5-5---4/5-5-5---6/7-7-7---6/7-7-7----|
A--4/5-5-5---2/3-3-3---6/7-7-7---4/5-5-5----|
E--2/3-3-3-------------4/5-5-5--------------|
I've got the lights turned up, the door is locked, the bedroom TV's

e---------------------------------------------|
B---------------------------------------------|
G------------4/5-5-5-------------6/7-7-7--7---|
D--4/5-5-5---4/5-5-5---6/7-7-7---6/7-7-7--7-4-|
A--4/5-5-5---2/3-3-3---6/7-7-7---4/5-5-5--5-4-|
E--2/3-3-3-------------4/5-5-5--------------2-|
   on...

e-----------------------------------------|
B-----------------------------------------|
G----------4/5-5-5-------------6/7-7-7----|
D--5-5-5---4/5-5-5---6/7-7-7---6/7-7-7----|
A--5-5-5---2/3-3-3---6/7-7-7---4/5-5-5----|
E--3-3-3-------------4/5-5-5--------------|
Doin' the only thing that gets me through the night since you've been

e---------------------------------------------|
B---------------------------------------------|
G------------4/5-5-5-------------6/7-7-7--7---|
D--4/5-5-5---4/5-5-5---6/7-7-7---6/7-7-7--7-4-|
A--4/5-5-5---2/3-3-3---6/7-7-7---4/5-5-5--5-4-|
E--2/3-3-3-------------4/5-5-5--------------2-|
  gone...

Chorus:
e---------------------------------|
B---------------------------------|
G-7---7-----------5---5---5---5---|
D-7---7---5---5---5---5---5---5---| x3
A-5---5---5---5---3---3---3---3---|
E---------3---3-------------------|
Prayin' for daylight, waiting for that morning sun
So I can act like my whole life ain't goin' wrong
Baby come back to me, I swear I'll make it right

e---------------------------------|
B---------------------------------|
G-5---5---5---5---7---7---7---7---|
D-5---5---5---5---7---7---7---7---|
A-3---3---3---3---5---5---5---5---|
E---------------------------------|
Don't make me spend another lonely night

e---------------------------------------------|
B---------------------------------------------|
G-----------4/5-5-5-------------6/7-7-7-7-7---|
D-4/5-5-5---4/5-5-5---6/7-7-7---6/7-7-7-7-7-4-|
A-4/5-5-5---2/3-3-3---6/7-7-7---4/5-5-5-5-5-4-|
E-2/3-3-3-------------4/5-5-5---------------2-|
Prayin' for daylight (prayin' for daylight)

Verse 2: same chords as Verse 1

Chorus

Bridge:
e-------------------------------|
B-------------------------------|
G-4-x-4-x-4-x-4-x-5-x-5-x-5-x-5-|
D-4-x-4-x-4-x-4-x-5-x-5-x-5-x-5-|
A-2-x-2-x-2-x-2-x-3-x-3-x-3-x-3-|
E-------------------------------|
Hopin' that I didn't wait too long

e---------------------------------------------------|
B---------------------------------------------------|
G-4-x-4-x-4-x-4-x-5-x-5-x-7-x-7-x-7-x-7-x-7-x-7-x-7-|
D-4-x-4-x-4-x-4-x-5-x-5-x-7-x-7-x-7-x-7-x-7-x-7-x-7-|
A-2-x-2-x-2-x-2-x-3-x-3-x-5-x-5-x-5-x-5-x-5-x-5-x-5-|
E---------------------------------------------------|
That this is just the dark before the dawn

Verse 3

Chorus (play twice, end on same chord pattern)
Suggest correction
Give kudos to tab author, rate the tab!
1 2 3 4 5
comments
print report bad tab
2 comments total.
0 reply
Brent220 10 Jul 17, 2006 12:31 AM

Good Job man I like it.

0 reply
brantheman 10 Mar 05, 2007 07:25 PM

it is a great tab

guest
You may want to rate the tab now too:
select rating
Wanna post a correction for this tab? Suggest correction