Oops, an error
Loading. Please wait.

Skin Bass Tab

1,828 views 3 this week
no commentswrite comment
1 2 3 4 5
please rate
add to favorites
launch autoscroll
font size
0
reset
guitar tuner
Autoscroll
slow
fast
+/-
esc
set tempo
stop
Help us to improve Ultimate-Guitar.com Take our survey!
×
Author
|--2------2------------|     
|---------------2------| 
|--------------------3-|
|---- 3----------------|

-|---2---------2-|-----------|---2---------2--|------------------|
|----------------|-----------|----------------|------------------|
|----------------|-----------|----------------|------------------|
|--------3-------|--3--------|--------3-------|-----2-----3------|


|----------|-2----------|----------|----------|
|--2-------|--------2---|-2--------|--------2-|
|----------|------------|----------|-2--------|
|--------3-|------------|--------3-|----------|

|--2------------2-|---------------|-2--------|---------2----------|
|-----------------|--2------------|----------|--------------------|
|-----------------|---------------|----------|--------------------|
|--------3--------|---------3-----|----------|--3-------------3---|

|--------|--2---------|------------|-----------------|----------------|
|--2-----|---------2--|--2---------|-------2-------2-|-------------2--|
|--------|------------|------------|---3-------------|---2------------|
|------3-|------------|--------3---|-----------------|----------------|


|------2---------2---|-----------------|--------------2-|----------------|
|-2---------2--------|-----------------|--2-------------|--2-----------2-|
|--------------------|-----2----2----2-|----------------|--------2-------|
|--------------------|--2--------------|------3--2------|----------------|


|--2-----2-|----------|-2-------2---|----3----|
|----------|-2--------|-------------|---------|
|----------|----------|-------------|---------|
|-----3----|------3---|------3------|---------|

|----------|--2---------|------------|------------------|-----------|
|--2-------|---------2--|--2---------|-------2-------2--|--------2--|
|----------|------------|------------|---3--------------|---2-------|
|-------3--|------------|-------3----|------------------|-----------|

|-----2---------2---|-----------------|--------------2-|----------------|
|-2----------2------|-----------------|--2-------------|--2-----------2-|
|-------------------|-----2----2----2-|----------------|--------2-------|
|-------------------|--2--------------|------3--2------|----------------|

|----------|----------|-----------|-----------|-----------|
|----------|----------|-----------|-----------|--------2--|
|--2-------|----------|--2--------|-----------|-----------|
|-------2--|--3----2--|--------2--|--3-----2--|--3--------|


|--------2---------2---|-----------------|------------2-|----------------|
|--2----------2--------|-----------------|--2-----------|--2-----------2-|
|----------------------|-----2----2----2-|--------------|--------2-------|
|----------------------|--2--------------|------3--2----|----------------|
Suggest correction
What's this?
You can suggest a correction to this tab. Community and Mods will review your correction and vote to approve or reject it.
comments
We did not receive enough feedback on this tab! Please rate:
print report bad tab
1 2 3 4 5
guest
You may want to rate the tab now too:
select rating
Please do not post tabs as comments. Select "correction" instead!