Oops, an error
Loading. Please wait.

Things That Matter Tab

2,904 views 1 this week
no commentswrite comment
1 2 3 4 5
excellent!
x 3
add to favorites
launch autoscroll
font size
0
reset
how to read this tab
guitar tuner
Autoscroll
slow
fast
+/-
esc
set tempo
stop
Help us to improve Ultimate-Guitar.com Take our survey!
×
Author
RASCAL FLATTS
THINGS THAT MATTER
tuning: half a step up (f C G# D# A# F)
email wasssup@hotmail.co.uk for corrections etc.
just tabbed the phrasing, if you want a referance, listen to the song, etc.

a little note: all the slide stuff is actually done on a hawian guitar, so you wont get 
exact sound with a normal one
INTRO
the chords may not be exact, but they're close
e------------------| X2
B------------------|
G-0---0-0--0--0-00-|
D-0---0-0--0--0-00-|
A-2h3-2------------|
E-------3--3--3-33-|

VERSE

e------------------| X8
B------------------|
G-0---0-0--0--0-00-|
D-0---0-0--0--0-00-|
A-2h3-2------------|
E-------3--3--3-33-|

e----------------------------|
B----------3-3-3-33----------|
G-0-0-0-00-0-0-0-00-0-0-0-00-|
D-2-2-2-22-0-0-0-00-2-2-2-22-|
A-3-3-3-33-2-2-2-22-3-3-3-33-|
E----------------------------|

CHORUS

e-----------|
B-1---------|
G-2-------0-|
D-2-------0-|
A-0---------|
E---------3-|

VERSE

e------------------| X8
B------------------|
G-0---0-0--0--0-00-|
D-0---0-0--0--0-00-|
A-2h3-2------------|
E-------3--3--3-33-|

e----------------------------|
B----------3-3-3-33----------|
G-0-0-0-00-0-0-0-00-0-0-0-00-|
D-2-2-2-22-0-0-0-00-2-2-2-22-|
A-3-3-3-33-2-2-2-22-3-3-3-33-|
E----------------------------|

lead:
e-----------|----------------|-------------|-------10------|
B-12-12/----|----------------|-------------|-10------------|
G-12-12/-12-|----------------|-7b9-7-------|-12b14---14r12-|
D--------12-|12/14/12-/14/12-|-------9r7-5-|---------------|
A-----------|----------------|-------------|---------------|
E-----------|----------------|-------------|---------------|

e-------|
B-------|
G-------|
D-5-7-9-|
A-------|
E-------|

CHORUS

e-----------|
B-1---------|
G-2-------0-|
D-2-------0-|
A-0---------|
E---------3-|
lead lick:
e---------------------|
B---------------------|
G-7-----7-------------|
D-10h12-10-12-12p10---|
A------------------12-|
E---------------------|

BRIDGE

e----------------|
B----------------|
G-------------19-|
D-10-12-14-17----|
A----------------|
E----------------|
just chords shown, no strumming
e-----------------------|
B-----------------------|
G-9-7-5---9-7-5-7-5-7-5-|
D-9-7-5---9-7-5-7-5-7-5-|
A-7-5-3---7-5-3-5-3-5-3-|
E-----------------------|
lead licks:
e-----------|---------------|
B-----------|---------------|
G-----------|---------------|
D-----5-7-7~|-9b10r9-7------|
A-5h7-------|---------10-12-|
E-----------|---------------|

VERSE

e------------------| X4
B------------------|
G-0---0-0--0--0-00-|
D-0---0-0--0--0-00-|
A-2h3-2------------|
E-------3--3--3-33-|

e----------------------------|
B----------3-3-3-33----------|
G-0-0-0-00-0-0-0-00-0-0-0-00-|
D-2-2-2-22-0-0-0-00-2-2-2-22-|
A-3-3-3-33-2-2-2-22-3-3-3-33-|
E----------------------------|

CHORUS

e-----------| X2
B-1---------|
G-2-------0-|
D-2-------0-|
A-0---------|
E---------3-|

SOLO
guitar 2 on the record is a hawaian guitar, so you can either play it's part as tabbed, 
with a slide to get a closer sound
guitar 1:
e-----------------------------------------------------------|
B-10b12-10b12---------13-15---------------------------------|
G---------------14b16-------14-12----14-12-12-12---14p12-12-|
D---------------------------------14---------------14p12-12-|
A-----------------------------------------------------------|
E-----------------------------------------------------------|

e-----------------------------------------------------|
B-----------------------------------------------------|
G----12-14-12b14--14p12---------12-14-12b14-12--14b16-|
D-/14------------------14p12-/14--------------14------|
A-----------------------------------------------------|
E-----------------------------------------------------|
guitar 2:
e--------------------------------------------/15--15-15-17-15-|
B---------------------------15----17-15------/15--15----------|
G-----12-14----16r14--14b16-14-12-16-14-14b16-----------------|
D-/14-------12------12----------------------------------------|
A-------------------------------------------------------------|
E-------------------------------------------------------------|

e-19/15-19/15-19/15-19/15---15-17~------------15p14h15p14-12---------|
B-------------------------15------12-15-17-15~--------------15-15h17-|
G--------------------------------------------------------------------|
D--------------------------------------------------------------------|
A--------------------------------------------------------------------|
E--------------------------------------------------------------------|

e-----------------------------------------------|
B-15-13-13h15-13-----13-15-17-------------------|
G---------------12h14--------12h14-14-12--------|
D---------------------------------------14-12---|
A--------------------------------------------15-|
E-----------------------------------------------|
guitar 1:
e----------------------15-----15-----15----------------|
B--------------13-15b17--15b17--15b17--15b17r15-151312-|
G---------12-14----------------------------------------|
D----12-14---------------------------------------------|
A-/14--------------------------------------------------|
E------------------------------------------------------|

e--------------------------------------------------------|
B------15-----15-----15----------------------------------|
G-14b16--14b16--14b16--14b16r14-141211-11b12-12-14-14b16-|
D--------------------------------------------------------|
A--------------------------------------------------------|
E--------------------------------------------------------|

e----------------------15-15-------15-15--------------|
B-12--15-15~---15-17-15-----17p15-----15--------------|
G---14-------16------------------16------14-12-/16-12-|
D-----------------------------------------------------|
A-----------------------------------------------------|
E-----------/-----------------------------------------|

e-17b18r17b18r17b18r17b18r17------------17b18r17b18r17b18r17b18r17-|
B-17b18r17b18r17b18r17b18r17------------17b18r17b18r17b18r17b18r17-|
G---------------------------14-12~--1214---------------------------|
D---------------------------------14-------------------------------|
A------------------------------------------------------------------|
E------------------------------------------------------------------|

e-15---15---15---15---15---15---15---17---17---17---17----|
B-18b2018b2018b2018b2018b2018b2018b2020b2210b2210b2210b22-|
G---------------------------------------------------------|
D---------------------------------------------------------|
A---------------------------------------------------------|
E---------------------------------------------------------|

e-19---19---19---19---19---19------------------------------------|
B-22b2422b2422b2422b2422b2422b24---------------------------------|
G----------------------------------------2b4-2b4~-4-4-4b2--------|
D-------------------------------------0-2-----------------5---5~-|
A----------------------------------0-2---------------------2-5---|
E-------------------------------///------------------------------|
after that last bit, it has completely faded out, so finish on that.
Suggest correction
Give kudos to tab author, rate the tab!
1 2 3 4 5
comments
print report bad tab
guest
You may want to rate the tab now too:
select rating
Wanna post a correction for this tab? Suggest correction