Oops, an error
Loading. Please wait.
We have Chord Pro version of What Hurts The Most.
It's the closest thing you can get to the original song and it has interactive parts. Check out the tab »
×
9,503 views 3 this week
1 commentread comment
1 2 3 4 5
x 3
add to favorites
×
Save as Personal and add changes to this tab that will be seen only by you. Learn more ›
×
You can save this tab as Personal to edit and correct it or add notes. All changes will be seen only by you. Learn more »
launch autoscroll
font size
0
reset
guitar tuner
edit
Autoscroll
slow
fast
+/-
esc
set tempo
stop
Author
Difficulty
Intro - 0.02 till 0.16

G-----------------------------------------------------------|
D-----------------------------------------------------------| x 2
A--8----------------6---------------------4~----------------|
E-----------------------------------------------------------|

Verse - 0.16 till 0.30

G--------------------------------------------------|-------------|
D--------------------------------------------------|-------------| x 2
A--8----------------6---------------------4~-------|------6------|
E--------------------------------------------------|-------------|

Pre Chorus - 0.30 till 0.44

G-----------------------------------------------------------------------|
D-----------------------------------------------------------------------|
A--4~-----------------------6-------------~-----8-----------------6-----|
E-----------------------------------------------------------------------|

G--------------------------------------|
D--------------------------------------|
A--4-4-4-4-4-4-4-4-4-6-6-6-6-6-6-6-6---|
E--------------------------------------|

Chorus - 0.44 till 1.12

G-----------------------------------------------------------|
D-----------------------------------------------------------|
A--8----------------6---------------------4~------------4---|
E-----------------------------------------------------------|

G--------------------------------------------------------------------|
D--------------------------------------------------------------------| x2
A------------------4---------------------6~--------------------------|
E--4~----------------------------------------------------------------|

Intro Riff - 1.12 till 1.20

G-----------------------------------------------------------|
D-----------------------------------------------------------| x 1
A--8----------------6---------------------4~----------------|
E-----------------------------------------------------------|

Verse - 1.20 till 1.34

G--------------------------------------------------|-------------|
D--------------------------------------------------|-------------| x 2
A--8----------------6---------------------4~-------|------6------|
E--------------------------------------------------|-------------|

Pre Chorus - 1.34 till 1.48

G-----------------------------------------------------------------------|
D-----------------------------------------------------------------------|
A--4~-----------------------6-------------~-----8-----------------6-----|
E-----------------------------------------------------------------------|

G--------------------------------------|
D--------------------------------------|
A--4-4-4-4-4-4-4-4-4-6-6-6-6-6-6-6-6---|
E--------------------------------------|

Second Chorus - 1.48 till 2.15

G-----------------------------------------------------------|
D-----------------------------------------------------------|
A--8----------------6---------------------4~------------4---|
E-----------------------------------------------------------|

G--------------------------------------------------------------------|
D--------------------------------------------------------------------| x2
A------------------4---------------------6~--------------------------|
E--4~----------------------------------------------------------------|

End of Second Chorus - 2.16 till 2.21

G-----------------------------------------------------------|
D-----------------------------------------------------------|
A--4----------------6---------------------4--4--4--4--------|
E-----------------------------------------------------------|

Solo - 2.22 till 2.35

E-----------------------------------------------------------|
A--8----------------6---------------------4--4--4--4--------|
D-----------------------------------------------------------| x 2
G-----------------------------------------------------------|

Chorus till end - 2.36 till 3.11

G-----------------------------------------------------------|
D-----------------------------------------------------------|
A--8----------------6---------------------4-4-4-4-4-4-4-4-4-|   Sooo Close!!!!!!
E-----------------------------------------------------------|

G--------------------------------------------------------------------|
D--------------------------------------------------------------------|
A------------------4---------------------6~--------------------------|
E--4~----------------------------------------------------------------|

G-----------------------------------------------------------|
D-----------------------------------------------------------|
A--8----------------6---------------------4~----------------|
E-----------------------------------------------------------|

G--------------------------------------------------------------------|
D--------------------------------------------------------------------| x2
A------------------4---------------------6~--------------------------|
E--4~----------------------------------------------------------------|

End - 3.12 - end

G-----------------------------------------------------------|
D-----------------------------------------------------------| x 2
A--8----------------6---------------------4~----------------|
E-----------------------------------------------------------|

            
            
Suggest correction
Creating personal tab
Creating personal tab
You can edit any tab online and save it as your Personal.

You can edit, replace or remove any tab part or add personal notes – all changes will be seen only by you.

Personal tabs can be accessed anytime from any device, even offline.
Learn more »
Give kudos to tab author, rate the tab!
1 2 3 4 5
comments
print report bad tab
1 comment total.
0 reply
racing666 34 Dec 14, 2015 01:48 PM

Nicely done but it's upside down.

guest
You may want to rate the tab now too:
select rating
Wanna post a correction for this tab? Suggest correction