Oops, an error
Loading. Please wait.

Creida chords

16 views 3 this week
no commentswrite comment
1 2 3 4 5
3 more votes to show rating
add to favorites
×
Save as Personal and add changes to this tab that will be seen only by you. Learn more ›
×
You can save this tab as Personal to edit and correct it or add notes. All changes will be seen only by you. Learn more »
launch autoscroll
font size
0
reset
transpose
0
reset
display chords
guitar tuner
edit
Autoscroll
slow
fast
+/-
esc
set tempo
stop
Strumming
There is no strumming pattern for this song yet. and get +5 IQ
Creída 
lyrics and music 

D                         G     A    D             G  
   A
|-------------|----------|-----|----|------|------|------|-----|
|-------------|----------|-----|----|------|------|------|-----|
|-------------|----------|-----|----|------|------|------|-----|
|---7-7-7-7-7-|-7-7-7-7-7|\9-7-|5-7-|7-4---|------|------|-----|
|--5----------|5---------|-----|----|----5-|5-5-2-|--2---|--4--|
|-------------|----------|-----|----|------|------|3---3-|5---5|
 
D            G    A
Cuando yo te conocí 
D            G     A 
Ni te diste cuenta de mi   
        
D            G       A 
Pero en ese instante yo me enamoré de ti 
 
D       
G     A  
Creída, no sé como piensa así   
D       G     A 
Creída, debes 
de'star junto a mi 
    
D         G     A
Solo aquí yo me quedo   
  D              G        A 
Y es por tí que estoy 
surfiendo   
D          G       A 
Pero lo aguanto porque té quiero   
 

D       G     A  
Creída, no sé como piensa así   
D       G     A 
Creída, 
debes de'star junto a mi   
 
D               G     A      D            
G    A
|---------|----|-----|------|-------|----|----|----|
|---------|----|-----|------|-------|----|----|----|
|-----2---|----|-\4-2|--2---|-2-----|----|----|----|
|---4-----|----|-----|5-----|---4---|----|----|----|
|-\5------|----|-----|------|-----5-|----|----|----|
|---------|----|-----|------|-------|----|----|----|
 
D               G     A             D         G    A
|---------|----|-----|-------------|----|----|----|----|
|---------|----|-----|-------------|----|----|----|----|
|-----2---|----|-----|-------------|----|----|----|----|
|---4-----|----|-5-4-|-2-2-2H4P2P0-|----|----|----|----|
|-\5------|----|-----|-------------|----|----|----|----|
|---------|----|-----|-------------|----|----|----|----|
 
G - A
G - A
G - A
G - A
 
D              G    A
Y quiero que entiendas 
D                G     A 
Que siempre te esperaré   

D            G      A 
Hasta que el tiempo se acabe 
  
D       G     A  

Creída, no sé como piensa así   
D       G     A 
Creída, debes de'star 
junto a mi
Suggest correction
Creating personal tab
Creating personal tab
You can edit any tab online and save it as your Personal.

You can edit, replace or remove any tab part or add personal notes – all changes will be seen only by you.

Personal tabs can be accessed anytime from any device, even offline.
Learn more »
Give kudos to tab author, rate the tab!
1 2 3 4 5
comments
print report bad tab
guest
Wanna post a correction for this tab? Suggest correction