Oops, an error
Loading. Please wait.

Rascuache chords

29 views 3 this week
no commentswrite comment
1 2 3 4 5
3 more votes to show rating
add to favorites
×
Save as Personal and add changes to this tab that will be seen only by you. Learn more ›
×
You can save this tab as Personal to edit and correct it or add notes. All changes will be seen only by you. Learn more »
launch autoscroll
font size
0
reset
transpose
0
reset
display chords
guitar tuner
edit
Autoscroll
slow
fast
+/-
esc
set tempo
stop
Strumming
There is no strumming pattern for this song yet. and get +5 IQ
lyrics: A. Benítez 
music: A. Benítez y A. Najarro
 
  
D                G 
Caminando por la calles 
            D                   
G 
Siento unos ojos que me miran a mi 
D                 G 
De repente siento 
algo frío   
         D             G 
Como que no me quieren aquí 
 
A             
G   
A mi me dicen un rascuache   
         A           G 
Por mi forma 
de vivir   
A                G 
Por lo tanto que tomo   
     A                  
G 
Y la música que quiero oír 
    
D                    G 
No me agüito, 
no me desespero   
   D                 G 
No nada me molesta a mi 
D                     
G  
Con mis amigos y con una chela   
  D              G 
Así me siento 
feliz 
 
D                       G             D               
     G 

|---------------------|-------------|---------------------|-------------|
|-7-7-7-7-7-7-7-7-----|-------------|-7-7-7-7-7-7-7-7-----|-------------|
|-----------------9-7-|-9-7---7-----|-----------------9-7-|-7H9-7H9-7---|
|---------------------|-----9---9-7-|---------------------|-----------9\|
|---------------------|-------------|---------------------|-------------|
|---------------------|-------------|---------------------|-------------|
 
D                       G             D           G 
|---------------------|-------------|------------|---------------|
|-7-7-7-7-7-7-7-7-----|-------------|------------|---------------|
|-----------------9-7-|-9-7---7-----|------------|---------------|
|---------------------|-----9---9-7-|-H9-7---7---|---------------|
|---------------------|-------------|------9---9-|7-9-7-5-7-5----|
|---------------------|-------------|------------|------------7-5|
 
 
D                G   
Caminado por las calles   
     D              
G 
Fumo y pienso en nada   
D                 G 
Cierro mis ojos e imagino   
   
D              G 
De esta vida escapar

            
            
Suggest correction
Creating personal tab
Creating personal tab
You can edit any tab online and save it as your Personal.

You can edit, replace or remove any tab part or add personal notes – all changes will be seen only by you.

Personal tabs can be accessed anytime from any device, even offline.
Learn more »
Give kudos to tab author, rate the tab!
1 2 3 4 5
comments
print report bad tab
guest
Wanna post a correction for this tab? Suggest correction