Oops, an error
Loading. Please wait.

City Of The Dead Tab

605 views 1 this week
no commentswrite comment
1 2 3 4 5
please rate
add to favorites
launch autoscroll
font size
0
reset
how to read this tab
guitar tuner
Autoscroll
slow
fast
+/-
esc
set tempo
stop
Help us to improve Ultimate-Guitar.com Take our survey!
×
Author
-------------------------------------------------------------------------------
                             City Of The Dead - The Rasmus
-------------------------------------------------------------------------------
Tabbed by: Borbi01
Email: sebastianmorlang@googlemail.com

This is my second tab. Please rate...


Tuning: Standard

Intro:(clean)
(keyboard transcription for guitar)
e|---------------------------------------------------------------------------------|
B|---------------------------------------------------------------------------------|
G|---------------------------------------------------------------------------------|
D|-9-9-9-9-9-9-8-8-----------------------------------------------------------------|2x
A|---------------------------------------------------------------------------------|
E|---------------------------------------------------------------------------------|

Verse: (distorted)
e|---------------------------------------------------------------------------------|
B|---------------------------------------------------------------------------------|
G|---------------------------------------------------------------------------------|
D|-9-9--8-8--9-9--8-8--9-9--7-7--9-9--7-7------------------------------------------|
A|-9-9--8-8--9-9--8-8--9-9--7-7--9-9--7-7------------------------------------------|
E|-7-7--6-6--7-7--6-6--7-7--5-5--7-7--5-5------------------------------------------|

Pre-Chorus: 
e|----------------------------------------------------------------------------------|
B|----------------------------------------------------------------------------------|
G|----------------------------------------------------------------------------------|
D|-----------7-7---------------------------------7-7-7-7-7-7-7-7--------------------|
A|-9-9--5-5--5-5--7-7--9-9--5-5--7-7-7-7-7-7-7-7-7-7-7-7-7-7-7-7--------------------|
E|-7-7--3-3-------5-5--7-7--3-3--5-5-5-5-5-5-5-5-5-5-5-5-5-5-5-5--------------------|
   x x  x x  x x  x x  x x  x x  x x x x x x x x 

Chorus: 
e|-----------------------------------------------------------------------------------|
B|-----------------------------------------------------------------------------------|
G|-7-7-7-7------------9-9-9-9--------------------------------------------------------|
D|-7-7-7-7--9-9-9-9---9-9-9-9---7-7---5-5---4-4-4-4---5-5-5-5-5-5-5-5---7-7-7-7------|2x
A|-5-5-5-5--9-9-9-9---7-7-7-7---7-7---5-5---4-4-4-4---5-5-5-5-5-5-5-5---7-7-7-7------|
E|----------7-7-7-7-------------5-5---3-3---2-2-2-2---3-3-3-3-3-3-3-3---5-5-5-5------|

e|-----------------------------------------------------------------------------------|
B|-----------------------------------------------------------------------------------|
G|-----------------------------------------------------------------------------------|
D|-9-9-------------------------------------------------------------------------------|
A|-9-9-------------------------------------------------------------------------------|
E|-7-7-------------------------------------------------------------------------------|


Intro: (this time with guitar)
e|-----------------------------------------------------------------------------------|
B|-----------------------------------------------------------------------------------|
G|-----------------------------------------------------------------------------------|
D|-9-9---8-8--9-9---8-8--------------------------------------------------------------|
A|-9-9---8-8--9-9---8-8--------------------------------------------------------------|
E|-7-7---6-6--7-7---6-6--------------------------------------------------------------|
(second guitar can play the intro keyboard line)


Verse: 
e|-----------------------------------------------------------------------------------|
B|-----------------------------------------------------------------------------------|
G|-----------------------------------------------------------------------------------|
D|-9-9--8-8--9-9--8-8--9-9--7-7--9-9--7-7--------------------------------------------|
A|-9-9--8-8--9-9--8-8--9-9--7-7--9-9--7-7--------------------------------------------|
E|-7-7--6-6--7-7--6-6--7-7--5-5--7-7--5-5--------------------------------------------|


Pre-Chorus: 
e|-----------------------------------------------------------------------------------|
B|-----------------------------------------------------------------------------------|
G|-----------------------------------------------------------------------------------|
D|-----------7-7---------------------------------7-7-7-7-7-7-7-7---------------------|
A|-9-9--5-5--5-5--7-7--9-9--5-5--7-7-7-7-7-7-7-7-7-7-7-7-7-7-7-7---------------------|
E|-7-7--3-3-------5-5--7-7--3-3--5-5-5-5-5-5-5-5-5-5-5-5-5-5-5-5---------------------|
   x x  x x  x x  x x  x x  x x  x x x x x x x x 


Chorus: 
e|-----------------------------------------------------------------------------------|
B|-----------------------------------------------------------------------------------|
G|-7-7-7-7------------9-9-9-9--------------------------------------------------------|
D|-7-7-7-7--9-9-9-9---9-9-9-9---7-7---5-5---4-4-4-4---5-5-5-5-5-5-5-5---7-7-7-7------|2x
A|-5-5-5-5--9-9-9-9---7-7-7-7---7-7---5-5---4-4-4-4---5-5-5-5-5-5-5-5---7-7-7-7------|
E|----------7-7-7-7-------------5-5---3-3---2-2-2-2---3-3-3-3-3-3-3-3---5-5-5-5------|


Bridge: 
e|-----------------------------------------------------------------------------------|
B|-----------------------------------------------------------------------------------|
G|-7-7-7-7---------9-9-7-7-6-6-4-4-2-2-2-2-4-4-4-4-4-4-4-4-2-2-2-2-------------------|
D|---------9-9-9-9-------------------------------------------------------------------|2x
A|-----------------------------------------------------------------------------------|
E|-----------------------------------------------------------------------------------|
(second guitar plays Chorus part)

Chorus: 
e|-----------------------------------------------------------------------------------|
B|-----------------------------------------------------------------------------------|
G|-7-7-7-7------------9-9-9-9--------------------------------------------------------|
D|-7-7-7-7--9-9-9-9---9-9-9-9---7-7---5-5---4-4-4-4---5-5-5-5-5-5-5-5---7-7-7-7------|2x
A|-5-5-5-5--9-9-9-9---7-7-7-7---7-7---5-5---4-4-4-4---5-5-5-5-5-5-5-5---7-7-7-7------|
E|----------7-7-7-7-------------5-5---3-3---2-2-2-2---3-3-3-3-3-3-3-3---5-5-5-5------|
(other guitar continues playing the Bridge part...)

Ending:
e|-----------------------------------------------------------------------------------|
B|-----------------------------------------------------------------------------------|
G|-----------------------------------------------------------------------------------|
D|-9-9-9-9-9-9-9-9-9-9-9-9-9-9-9-9--9-\----------------------------------------------|
A|-9-9-9-9-9-9-9-9-9-9-9-9-9-9-9-9--9-\----------------------------------------------|
E|-7-7-7-7-7-7-7-7-7-7-7-7-7-7-7-7--7-\----------------------------------------------|


| /  slide up
| \  slide down
| h  hammer-on
| p  pull-off
| ~  vibrato
| +  harmonic
| x  Mute note
===============================================================================
Suggest correction
Give kudos to tab author, rate the tab!
1 2 3 4 5
comments
print report bad tab
guest
You may want to rate the tab now too:
select rating
Please do not post tabs as comments. Select "correction" instead!