Oops, an error
Loading. Please wait.

Days Tab

version 1
version 1

Whole song

Interactive

352 views 3 this week
no commentswrite comment
1 2 3 4 5
please rate
add to favorites
launch autoscroll
font size
0
reset
how to read this tab
guitar tuner
Tab Pro tools
  • play this tab
  • loop segment
  • change instrument
  • show fretboard
  • metronome
Autoscroll
slow
fast
+/-
esc
set tempo
stop
Contributor
-------------------------------------------------------------------------------
                             Days - The Rasmus
-------------------------------------------------------------------------------
Tabbed by: Borbi01
Email: sebastianmorlang@googlemail.com


Tuning:Standard

Intro:
e|-0----------------------------------------|
B|-1----------------------------------------|
G|-2------------7---------------7-----------|
D|-2------------7---5---7---5---7---5---7---|
A|-0------------5---5---7---5---5---5---7---|
E|------------------3---5---3-------3---5---|

A 2nd guitar enters when the first powerchord is played:
e|----------------------------------------------------------------------------|
B|---5----------------------5----------------------5--------------------------|
G|------7-5-4------------------7-5-4------------------7-5-4-------------------|
D|-7----------5------5----7----------5------5----7----------5------5--5-7-----|
A|--------------7--5---7---------------7--5---7---------------7--5--------7---|
E|----------------------------------------------------------------------------|

Verse: (played with tremolo effect):
e|-(0)-----0------0---|
B|-(1)-----1------1---|
G|-(2)-----2------0---|
D|-(2)-----2------2---|
A|-(0)-----0------3---|
E|--------------------|

Then:
e|-------------|
B|-------------|
G|-7-----------|
D|-7---5---7---|
A|-5---5---7---|
E|-----3---5---|

2nd guitar plays:
e|--------------------------|
B|---5----------------------|
G|------7-5-4---------------|
D|-7----------5------5------|
A|--------------7--5----7---|
E|--------------------------|

with tremolo effect:
e|-(0)-----0------0---|
B|-(1)-----1------1---|
G|-(2)-----2------0---|
D|-(2)-----2------2---|
A|-(0)-----0------3---|
E|--------------------|


Pre-Chorus:
e|-------------|
B|-------------|
G|-7-----------|
D|-7---5---7---| 2x
A|-5---5---7---|
E|-----3---5---|

e|------------------------------------|
B|------------------------------------|
G|------------------------------------|
D|-7-7-7-7-7-7-7-7--5-5-5-5-5-5-5-5---|
A|-7-7-7-7-7-7-7-7--5-5-5-5-5-5-5-5---|
E|-5-5-5-5-5-5-5-5--3-3-3-3-3-3-3-3---|
   x x x x          x x x x x

guitar 2 plays:
e|----------------------------------------------------------|
B|---5----------------------5-------------------------------|
G|------7-5-4------------------7-5-4------------------------|
D|-7----------5------5----7----------5------5------7----9---|
A|--------------7--5---7---------------7--5---(7)-----------|
E|----------------------------------------------------------|

Chorus:
e|----------------------------------------------------------------------|
B|----------------------------------------------------------------------|
G|-7-7-7-7-7-7-7-7------------------------------------------------------|
D|-7-7-7-7-7-7-7-7--5-5-5-5-5-5-5-5--7-7-7-7-7-7-7-7--5-5-5-5-5-5-5-5---| 2x
A|-5-5-5-5-5-5-5-5--5-5-5-5-5-5-5-5--7-7-7-7-7-7-7-7--5-5-5-5-5-5-5-5---|
E|------------------3-3-3-3-3-3-3-3--5-5-5-5-5-5-5-5--3-3-3-3-3-3-3-3---|

e|----------|
B|----------|
G|------3---|
D|-3----3---|
A|-3----1---|
E|-1--------|

Verse: (played with tremolo effect):
e|-0-----0------0---|
B|-1-----1------1---|
G|-2-----2------0---|
D|-2-----2------2---|
A|-0-----0------3---|
E|------------------|


Pre-Chorus:
e|-------------|
B|-------------|
G|-7-----------|
D|-7---5---7---| 2x
A|-5---5---7---|
E|-----3---5---|

e|------------------------------------|
B|------------------------------------|
G|------------------------------------|
D|-7-7-7-7-7-7-7-7--5-5-5-5-5-5-5-5---|
A|-7-7-7-7-7-7-7-7--5-5-5-5-5-5-5-5---|
E|-5-5-5-5-5-5-5-5--3-3-3-3-3-3-3-3---|
   x x x x          x x x x 

guitar 2 plays:
e|--------------------------------------------------|
B|---5----------------------5-----------------------|
G|------7-5-4------------------7-5-4----------------|
D|-7----------5------5----7----------5------5-------|
A|--------------7--5---7---------------7--5---(7)---|
E|--------------------------------------------------|

Chorus:
e|----------------------------------------------------------------------|
B|----------------------------------------------------------------------|
G|-7-7-7-7-7-7-7-7------------------------------------------------------|
D|-7-7-7-7-7-7-7-7--5-5-5-5-5-5-5-5--7-7-7-7-7-7-7-7--5-5-5-5-5-5-5-5---| 2x
A|-5-5-5-5-5-5-5-5--5-5-5-5-5-5-5-5--7-7-7-7-7-7-7-7--5-5-5-5-5-5-5-5---|
E|------------------3-3-3-3-3-3-3-3--5-5-5-5-5-5-5-5--3-3-3-3-3-3-3-3---|

e|----------|
B|----------|
G|------3---|
D|-3----3---|
A|-3----1---|
E|-1--------|

Bridge:
e|-----------------------------------------------------|
B|-----5------------5------------5---------------------|
G|---5----4--7----5----4--7----5----4--7-----7-----7---|
D|-7------------7------------7------------5------------|
A|----------------------------------------------7------|
E|-----------------------------------------------------|

A 2nd guitar plays (at 2:36): (with distortion)
e|------|
B|------|
G|------|
D|-/7---|
A|------|
E|------|


Pre-Chorus:
e|-------------------------------------5--------7---|
B|-----6-------8-------6-------8-----6---6----8-----|
G|---5-------7-------5-------7-----5--------7-------|
D|-3-------5-------3-------5------------------------|
A|--------------------------------------------------|
E|--------------------------------------------------|

2nd guitar plays:
e|------------------------------------|
B|------------------------------------|
G|------------------------------------|
D|-3-3-3-3-3-3-3-3--5-5-5-5-5-5-5-5---| 3x
A|-3-3-3-3-3-3-3-3--5-5-5-5-5-5-5-5---|
E|-1-1-1-1-1-1-1-1--3-3-3-3-3-3-3-3---|
   x x x x x x x x  x x x x x x x x

e|------------------------------------|
B|------------------------------------|
G|------------------------------------|
D|-7-7-7-7-7-7-7-7--5-5-5-5-5-5-5-5---|
A|-7-7-7-7-7-7-7-7--5-5-5-5-5-5-5-5---|
E|-5-5-5-5-5-5-5-5--3-3-3-3-3-3-3-3---|

Chorus:
e|----------------------------------------------------------------------|
B|----------------------------------------------------------------------|
G|-7-7-7-7-7-7-7-7------------------------------------------------------|
D|-7-7-7-7-7-7-7-7--5-5-5-5-5-5-5-5--7-7-7-7-7-7-7-7--5-5-5-5-5-5-5-5---| 2x
A|-5-5-5-5-5-5-5-5--5-5-5-5-5-5-5-5--7-7-7-7-7-7-7-7--5-5-5-5-5-5-5-5---|
E|------------------3-3-3-3-3-3-3-3--5-5-5-5-5-5-5-5--3-3-3-3-3-3-3-3---|

e|----------------------------------------------|
B|----------------------------------------------|
G|----------------------------------------------|
D|-3----5----7-7-7-7-7-7-7-7--5-5-5-5-5-5-5-5---|
A|-3----5----7-7-7-7-7-7-7-7--5-5-5-5-5-5-5-5---|
E|-1----3----5-5-5-5-5-5-5-5--3-3-3-3-3-3-3-3---|
             x x x x x x x x

e|----------------------------------------------------------------------|
B|----------------------------------------------------------------------|
G|-7-7-7-7-7-7-7-7------------------------------------------------------|
D|-7-7-7-7-7-7-7-7--5-5-5-5-5-5-5-5--7-7-7-7-7-7-7-7--5-5-5-5-5-5-5-5---| 4x
A|-5-5-5-5-5-5-5-5--5-5-5-5-5-5-5-5--7-7-7-7-7-7-7-7--5-5-5-5-5-5-5-5---|
E|------------------3-3-3-3-3-3-3-3--5-5-5-5-5-5-5-5--3-3-3-3-3-3-3-3---|

Ending:
e|----------------|
B|----------------|
G|----------------|
D|-3----5----7----|
A|-3----5----7----|
E|-1----3----5----|


| /  slide up
| \  slide down
| h  hammer-on
| p  pull-off
| ~  vibrato
| +  harmonic
| x  Mute note
===============================================================================
comments
We did not receive enough feedback on this tab! Please rate:
print report bad tab
1 2 3 4 5
I want to post or [tab]
guest
You may want to rate the tab now too:
select rating
Please do not post tabs as comments. Select "correction" instead!