Oops, an error
Loading. Please wait.

Dont Let Go Tab

2,415 views 1 this week
1 commentread comment
1 2 3 4 5
x 4
add to favorites
launch autoscroll
font size
0
reset
how to read this tab
guitar tuner
Autoscroll
slow
fast
+/-
esc
set tempo
stop
Help us to improve Ultimate-Guitar.com Take our survey!
×
Author
Difficulty
intermediate
This is the great closing track on the album!
I worked for 3 hours on this one so I hope u njoy it…

This song is played mostly in power tab so it’s very easy!
All notes/chords in brackets are optional to play…

Verse 1: (distorted)
e|-------------------------------------------|
b|-------------------------------------------|
g|-------------------------------------------|
d|-7-7-7-7-7-7-7-7-3-3-3-3--2-2-2-2----------|
a|-7-7-7-7-7-7-7-7-3-3-3-3--2-2-2-2----------|
e|-5-5-5-5-5-5-5-5-1-1-1-1--0-0-0-0----------|
Holding my breath as I walk to your garden…

|-------------------------------------------|
|-------------------------------------------|
|-------------------------------------------|
|-2-2-2-2-2-2-2-2--3-3-3-3-3-3-3-3----------|
|-2-2-2-2-2-2-2-2--3-3-3-3-3-3-3-3----------|
|-0-0-0-0-0-0-0-0--1-1-1-1-1-1-1-1----------|
…everything seems so abandoned

|-------------------------------------------|
|-------------------------------------------|
|-------------------------------------------|
|-7-7-7-7-7-7-7-7-3-3-3-3--2-2-2-2----------|
|-7-7-7-7-7-7-7-7-3-3-3-3--2-2-2-2----------|
|-5-5-5-5-5-5-5-5-1-1-1-1--0-0-0-0----------|
Roses have grown just as high as a mountain…

|------------------------------------------------|
|------------------------------------------------|
|---------------------------------5--5--5--5-----|
|-2-2-2-2-2-2-2-2--3-3-3-3--5--5--5--5-----------|
|-2-2-2-2-2-2-2-2--3-3-3-3--3--3--3--3-----------|
|-0-0-0-0-0-0-0-0--1-1-1-1-(3)(3)(3)(3)----------|
…fireflies glow in the dark

Chorus: (acoustic)

C             G
Don’t let go_____ now

Am     (G)    F
Somebody is lying

Verse 2: (distorted again)
|----------------------------------|
|----------------------------------|
|----------------------------------|
|-7-7-7-7-7-7-7-7-3-3-3-3--2-2-2-2-|
|-7-7-7-7-7-7-7-7-3-3-3-3--2-2-2-2-|
|-5-5-5-5-5-5-5-5-1-1-1-1--0-0-0-0-|
Everyone came to the final revival…

|----------------------------------|
|----------------------------------|
|----------------------------------|
|-2-2-2-2-2-2-2-2--3-3-3-3-3-3-3-3-|
|-2-2-2-2-2-2-2-2--3-3-3-3-3-3-3-3-|
|-0-0-0-0-0-0-0-0--1-1-1-1-1-1-1-1-|
…it’s been a year since we’ve been here

|----------------------------------|
|----------------------------------|
|----------------------------------|
|-7-7-7-7-7-7-7-7-3-3-3-3--2-2-2-2-|
|-7-7-7-7-7-7-7-7-3-3-3-3--2-2-2-2-|
|-5-5-5-5-5-5-5-5-1-1-1-1--0-0-0-0-|
The spell has been cast to welcome the arrival…

|---------------------------------------|
|---------------------------------------|
|---------------------------5--5--5--5--|
|-2-2-2-2-2-2-2-2--3-3-3-3--5--5--5--5--|
|-2-2-2-2-2-2-2-2--3-3-3-3--3--3--3--3--|
|-0-0-0-0-0-0-0-0--1-1-1-1-(3)(3)(3)(3)-|
    …the phantom of silence is near

Chorus: (acoustic)

C             G
Don’t let go_____ now

Am      (G)     F
Your garden is dying

C                   G
These wounds won’t_____ heal

Am     (G)   F
Somebody is lying

Bridge: (distortion)
|------------------------------------------|
|------------------------------------------|
|------------------5--5--5--5--5--5--5--5--|
|-7-7-7-7-7-7-7-7--5--5--5--5--5--5--5--5--|
|-7-7-7-7-7-7-7-7--3--3--3--3--3--3--3--3--|
|-5-5-5-5-5-5-5-5-(3)(3)(3)(3)(3)(3)(3)(3)-|
     Break the of emptiness…

|----------------------------------|
|----------------------------------|
|----------------------------------|
|-3-3-3-3-3-3-3-3--2-2-2-2-2-2-2-2-|
|-3-3-3-3-3-3-3-3--2-2-2-2-2-2-2-2-|
|-1-1-1-1-1-1-1-1--0-0-0-0-0-0-0-0-|
…and thousand years of loneliness

|------------------------------------------|
|------------------------------------------|
|------------------5--5--5--5--5--5--5--5--|
|-7-7-7-7-7-7-7-7--5--5--5--5--5--5--5--5--|
|-7-7-7-7-7-7-7-7--3--3--3--3--3--3--3--3--|
|-5-5-5-5-5-5-5-5-(3)(3)(3)(3)(3)(3)(3)(3)-|
Bless the path of righteousness…

|----------------------------------|
|----------------------------------|
|----------------------------------|
|-3-3-3-3-3-3-3-3--2-2-2-2-2-2-2-2-|
|-3-3-3-3-3-3-3-3--2-2-2-2-2-2-2-2-|
|-1-1-1-1-1-1-1-1--0-0-0-0-0-0-0-0-|
…And walk the trails of holiness

|-----------------------------------|
|-----------------------------------|
|-----------------------------------|
|-7-7-7-7--5-5-5-5--3-3-3-3-3-3-3-3-|
|-7-7-7-7--5-5-5-5--3-3-3-3-3-3-3-3-|
|-5-5-5-5--3-3-3-3--1-1-1-1-1-1-1-1-|
             Your garden is dying

|---------------------------------------------------|
|---------------------------------------------------|
|---------------------------------------------------|
|-7-7-7-7--5-5-5-5--3-3-3-3-3-3-3-3-3-3-3-3-3-3-3-3-|
|-7-7-7-7--5-5-5-5--3-3-3-3-3-3-3-3-3-3-3-3-3-3-3-3-|
|-5-5-5-5--3-3-3-3--1-1-1-1-1-1-1-1-1-1-1-1-1-1-1-1-|
              Somebody is lying

Chorus: (distorted this time)
|------------------------------------------------|
|------------------------------------------------|
|------------------------------------------------|
|10-10-10-10-10-10-10-10-10-10-10-10-10-10-10-10-|
|10-10-10-10-10-10-10-10-10-10-10-10-10-10-10-10-|
|-8--8--8--8--8--8--8--8--8--8--8--8--8--8--8--8-|
               Don’t let go_______

|------------------------------------------|
|------------------------------------------|
|------------------------------------------|
|-5-5-5-5-5-5-5-5-5-5-5-5-5-5-5-5----------|
|-5-5-5-5-5-5-5-5-5-5-5-5-5-5-5-5----------|
|-3-3-3-3-3-3-3-3-3-3-3-3-3-3-3-3----------|
              …now

|--------------------------------------------|
|--------------------------------------------|
|--------------------------------------------|
|-7-7-7-7--5-5-5-5--3-3-3-3-3-3-3-3----------|
|-7-7-7-7--5-5-5-5--3-3-3-3-3-3-3-3----------|
|-5-5-5-5--3-3-3-3--1-1-1-1-1-1-1-1----------|
             Your garden is dying

|------------------------------------------------|
|------------------------------------------------|
|------------------------------------------------|
|10-10-10-10-10-10-10-10-10-10-10-10-10-10-10-10-|
|10-10-10-10-10-10-10-10-10-10-10-10-10-10-10-10-|
|-8--8--8--8--8--8--8--8--8--8--8--8--8--8--8--8-|
              These wounds won’t_______

|---------------------------------|
|---------------------------------|
|---------------------------------|
|-5-5-5-5-5-5-5-5-5-5-5-5-5-5-5-5-|
|-5-5-5-5-5-5-5-5-5-5-5-5-5-5-5-5-|
|-3-3-3-3-3-3-3-3-3-3-3-3-3-3-3-3-|
              …heal

|-----------------------------------|
|-----------------------------------|
|-----------------------------------|
|-7-7-7-7--5-5-5-5--3-3-3-3-3-3-3-3-|
|-7-7-7-7--5-5-5-5--3-3-3-3-3-3-3-3-|
|-5-5-5-5--3-3-3-3--1-1-1-1-1-1-1-1-|
             Somebody is lying

Chorus: (distorted)
This is where the chords move up a few bars
|--------------------------------------------------|
|--------------------------------------------------|
|--8--8--8--8--8--8--8--8--8--8--8--8--8--8--8--8--|
|--8--8--8--8--8--8--8--8--8--8--8--8--8--8--8--8--|
|--6--6--6--6--6--6--6--6--6--6--6--6--6--6--6--6--|
|-(6)(6)(6)(6)(6)(6)(6)(6)(6)(6)(6)(6)(6)(6)(6)(6)-
                 Don’t let go_____

|---------------------------------|
|---------------------------------|
|---------------------------------|
|-8-8-8-8-8-8-8-8-8-8-8-8-8-8-8-8-|
|-8-8-8-8-8-8-8-8-8-8-8-8-8-8-8-8-|
|-6-6-6-6-6-6-6-6-6-6-6-6-6-6-6-6-|
               …now

|------------------------------------------------------|
|------------------------------------------------------|
|------------------------------------------------------|
|10-10-10-10--8-8-8-8--6-6-6-6-6-6-6-6-6-6-6-6-6-6-6-6-|
|10-10-10-10--8-8-8-8--6-6-6-6-6-6-6-6-6-6-6-6-6-6-6-6-|
|-8--8--8--8--6-6-6-6--4-4-4-4-4-4-4-4-4-4-4-4-4-4-4-4-|
                The garden is dying

|--------------------------------------------------|
|--------------------------------------------------|
|--8--8--8--8--8--8--8--8--8--8--8--8--8--8--8--8--|
|--8--8--8--8--8--8--8--8--8--8--8--8--8--8--8--8--|
|--6--6--6--6--6--6--6--6--6--6--6--6--6--6--6--6--|
|-(6)(6)(6)(6)(6)(6)(6)(6)(6)(6)(6)(6)(6)(6)(6)(6)-
                 These wounds won’t_____

|---------------------------------|
|---------------------------------|
|---------------------------------|
|-8-8-8-8-8-8-8-8-8-8-8-8-8-8-8-8-|
|-8-8-8-8-8-8-8-8-8-8-8-8-8-8-8-8-|
|-6-6-6-6-6-6-6-6-6-6-6-6-6-6-6-6-|
               …heal

|------------------------------------------------------|
|------------------------------------------------------|
|------------------------------------------------------|
|10-10-10-10--8-8-8-8--6-6-6-6-6-6-6-6-6-6-6-6-6-6-6-6-|
|10-10-10-10--8-8-8-8--6-6-6-6-6-6-6-6-6-6-6-6-6-6-6-6-|
|-8--8--8--8--6-6-6-6--4-4-4-4-4-4-4-4-4-4-4-4-4-4-4-4-|
                  Somebody is lying

|--------------------------------------------------|
|--------------------------------------------------|
|--8--8--8--8--8--8--8--8--8--8--8--8--8--8--8--8--|
|--8--8--8--8--8--8--8--8--8--8--8--8--8--8--8--8--|
|--6--6--6--6--6--6--6--6--6--6--6--6--6--6--6--6--|
|-(6)(6)(6)(6)(6)(6)(6)(6)(6)(6)(6)(6)(6)(6)(6)(6)-
                Aah-aah-aah_____

|---------------------------------|
|---------------------------------|
|---------------------------------|
|-8-8-8-8-8-8-8-8-8-8-8-8-8-8-8-8-|
|-8-8-8-8-8-8-8-8-8-8-8-8-8-8-8-8-|
|-6-6-6-6-6-6-6-6-6-6-6-6-6-6-6-6-|
               …aah

|------------------------------------------------------|
|------------------------------------------------------|
|------------------------------------------------------|
|10-10-10-10--8-8-8-8--6-6-6-6-6-6-6-6-6-6-6-6-6-6-6-6-|
|10-10-10-10--8-8-8-8--6-6-6-6-6-6-6-6-6-6-6-6-6-6-6-6-|
|-8--8--8--8--6-6-6-6--4-4-4-4-4-4-4-4-4-4-4-4-4-4-4-4-|
               The garden is dying

|--------------------------------------------------|
|--------------------------------------------------|
|--8--8--8--8--8--8--8--8--8--8--8--8--8--8--8--8--|
|--8--8--8--8--8--8--8--8--8--8--8--8--8--8--8--8--|
|--6--6--6--6--6--6--6--6--6--6--6--6--6--6--6--6--|
|-(6)(6)(6)(6)(6)(6)(6)(6)(6)(6)(6)(6)(6)(6)(6)(6)-
                 Aah-aah-aah_____

|---------------------------------|
|---------------------------------|
|---------------------------------|
|-8-8-8-8-8-8-8-8-8-8-8-8-8-8-8-8-|
|-8-8-8-8-8-8-8-8-8-8-8-8-8-8-8-8-|
|-6-6-6-6-6-6-6-6-6-6-6-6-6-6-6-6-|
              …aah

|------------------------------------------------------|
|------------------------------------------------------|
|------------------------------------------------------|
|10-10-10-10--8-8-8-8--6-6-6-6-6-6-6-6-6-6-6-6-6-6-6-6-|
|10-10-10-10--8-8-8-8--6-6-6-6-6-6-6-6-6-6-6-6-6-6-6-6-|
|-8--8--8--8--6-6-6-6--4-4-4-4-4-4-4-4-4-4-4-4-4-4-4-4-|
                  Somebody is lying

(This part goes back to acoustic guitar, for this it’s actually better to play bar 
but power chords are okay if you are a beginner. A good strumming method for this is to 
use a flat thumb and brush down every chord):
|(6)(6)(6)(6)(6)(6)(6)(6)(6)(6)(6)(6)(6)(6)(6)(6)-
|(8)(8)(8)(8)(8)(8)(8)(8)(8)(8)(8)(8)(8)(8)(8)(8)-
|-8--8--8--8--8--8--8--8--8--8--8--8--8--8--8--8--|
|-8--8--8--8--8--8--8--8--8--8--8--8--8--8--8--8--|
|-6--6--6--6--6--6--6--6--6--6--6--6--6--6--6--6--|
|(6)(6)(6)(6)(6)(6)(6)(6)(6)(6)(6)(6)(6)(6)(6)(6)-
                Aah-aah-aah_____

|(6)(6)(6)(6)(6)(6)(6)(6)(6)(6)(6)(6)(6)(6)(6)(6)-
|(6)(6)(6)(6)(6)(6)(6)(6)(6)(6)(6)(6)(6)(6)(6)(6)-
|(7)(7)(7)(7)(7)(7)(7)(7)(7)(7)(7)(7)(7)(7)(7)(7)-
|-8--8--8--8--8--8--8--8--8--8--8--8--8--8--8--8--|
|-8--8--8--8--8--8--8--8--8--8--8--8--8--8--8--8--|
|-6--6--6--6--6--6--6--6--6--6--6--6--6--6--6--6--|
                    …aah

|(8)(8)(8)(8)-(8)(8)(8)(8)-(8)(8)(8)(8)(8)(8)(8)(8)(8)(8)(8)(8)(8)(8)(8)(8)-|
|(8)(8)(8)(8)-(8)(8)(8)(8)-(8)(8)(8)(8)(8)(8)(8)(8)(8)(8)(8)(8)(8)(8)(8)(8)-|
|(8)(8)(8)(8)-(7)(7)(7)(7)-(5)(5)(5)(5)(5)(5)(5)(5)(5)(5)(5)(5)(5)(5)(5)(5)-|
|10-10-10-10---8--8--8--8---6--6--6--6--6--6--6--6--6--6--6--6--6--6--6--6--|
|10-10-10-10---8--8--8--8---6--6--6--6--6--6--6--6--6--6--6--6--6--6--6--6--|
|-8--8--8--8---6--6--6--6---4--4--4--4--4--4--4--4--4--4--4--4--4--4--4--4--|
                   One of us is lying

|(6)(6)(6)(6)(6)(6)(6)(6)(6)(6)(6)(6)(6)(6)(6)(6)-
|(8)(8)(8)(8)(8)(8)(8)(8)(8)(8)(8)(8)(8)(8)(8)(8)-
|-8--8--8--8--8--8--8--8--8--8--8--8--8--8--8--8--|
|-8--8--8--8--8--8--8--8--8--8--8--8--8--8--8--8--|
|-6--6--6--6--6--6--6--6--6--6--6--6--6--6--6--6--|
|(6)(6)(6)(6)(6)(6)(6)(6)(6)(6)(6)(6)(6)(6)(6)(6)-
               Aah-aah-aah_____

|(8)(8)(8)(8)-(8)(8)(8)(8)-(8)(8)(8)(8)(8)(8)(8)(8)(8)(8)(8)(8)(8)(8)(8)(8)-|
|(8)(8)(8)(8)-(8)(8)(8)(8)-(8)(8)(8)(8)(8)(8)(8)(8)(8)(8)(8)(8)(8)(8)(8)(8)-|
|(8)(8)(8)(8)-(7)(7)(7)(7)-(5)(5)(5)(5)(5)(5)(5)(5)(5)(5)(5)(5)(5)(5)(5)(5)-|
|10-10-10-10---8--8--8--8---6--6--6--6--6--6--6--6--6--6--6--6--6--6--6--6--|
|10-10-10-10---8--8--8--8---6--6--6--6--6--6--6--6--6--6--6--6--6--6--6--6--|
|-8--8--8--8---6--6--6--6---4--4--4--4--4--4--4--4--4--4--4--4--4--4--4--4--|
      Aah__________________________________

A great way to end a great album!!!
Suggest correction
comments
print report bad tab
1 comment total.
0 reply
supea 16 Aug 10, 2007 07:25 AM

this ain't intermeditate. I can play this quite easily and i've played for 2 months. Nice tab tho

guest
You may want to rate the tab now too:
select rating
Wanna post a correction for this tab? Suggest correction