Oops, an error
Loading. Please wait.

Everything You Say Tab

575 views 1 this week
no commentswrite comment
1 2 3 4 5
please rate
add to favorites
launch autoscroll
font size
0
reset
how to read this tab
guitar tuner
Autoscroll
slow
fast
+/-
esc
set tempo
stop
Help us to improve Ultimate-Guitar.com Take our survey!
×
Author
Artist : The Rasmus
Song : Everything you say
Album : In the shadows (single)
Tab by: Beberasmus bebe_4048@hotmail.com

Nice song

Intro:
E|------------------------|
B|------------------------|
G|------------------------|
D|------------------------|x4
A|---7-7---------7-7------|
E|-0-----7-4-0-0-----7-4~-|

Verse:
               ........P.M..........
E|-----------------------------------|
B|-----------------------------------|
G|-----------------------------------|
D|-7~-5~-3~-2~-----------------------|
A|-7~-5~-3~-2~---7-7---------7-7-----|x4
E|-5~-3~-1~-0~-0-----7-4-0-0-----7-4-|


Then:
E|---------------------------------|
B|---------------------------------|
G|---------------------------------|
D|-7-7-7-7-5-5-5-5-3-3-3-3-2-2-2-2-|
A|-7-7-7-7-5-5-5-5-3-3-3-3-2-2-2-2-|x2
E|-5-5-5-5-3-3-3-3-1-1-1-1-0-0-0-0-|

Prechorus:
E|---------|
B|---------|
G|---------|
D|-2-2-2-2-|
A|-2-2-2-2-|
E|-0-0-0-0-|

Chorus:
E|----------------------------------------------------|
B|----------------------------------------------------|
G|-7-7-7-7-7-7----------------------------------------|
D|-7-7-7-7-7-7--8-8-8-8-8--5-5-5-5-5--3-3-3/7-7-7-7-7-|x2
A|-5-5-5-5-5-5--8-8-8-8-8--5-5-5-5-5--3-3-3/7-7-7-7-7-|
E|--------------6-6-6-6-6--3-3-3-3-3--1-1-1/5-5-5-5-5-|

Then:
E|------------------------|
B|------------------------|
G|------------------------|
D|------------------------|x2
A|---7-7---------7-7------|
E|-0-----7-4-0-0-----7-4~-|

Verse 2:
               ........P.M..........
E|-----------------------------------|
B|-----------------------------------|
G|-----------------------------------|
D|-7~-5~-3~-2~-----------------------|
A|-7~-5~-3~-2~---7-7---------7-7-----|x2
E|-5~-3~-1~-0~-0-----7-4-0-0-----7-4-|

Then:
E|---------------------------------|
B|---------------------------------|
G|---------------------------------|
D|-7-7-7-7-5-5-5-5-3-3-3-3-2-2-2-2-|
A|-7-7-7-7-5-5-5-5-3-3-3-3-2-2-2-2-|x2
E|-5-5-5-5-3-3-3-3-1-1-1-1-0-0-0-0-|

Prechorus:
E|---------|
B|---------|
G|---------|
D|-2-2-2-2-|
A|-2-2-2-2-|
E|-0-0-0-0-|

Chorus:
E|----------------------------------------------------|
B|----------------------------------------------------|
G|-7-7-7-7-7-7----------------------------------------|
D|-7-7-7-7-7-7--8-8-8-8-8--5-5-5-5-5--3-3-3/7-7-7-7-7-|x2
A|-5-5-5-5-5-5--8-8-8-8-8--5-5-5-5-5--3-3-3/7-7-7-7-7-|
E|--------------6-6-6-6-6--3-3-3-3-3--1-1-1/5-5-5-5-5-|

Then:
E|------------------------|
B|------------------------|
G|------------------------|
D|------------------------|x3
A|---7-7---------7-7------|
E|-0-----7-4-0-0-----7-4~-|

End:
E|--------------|
B|--------------|
G|--------------|
D|--------------|
A|---7-7--------|
E|-0-----7-4-0~-|

Please reate!
PEACE!
Suggest correction
Give kudos to tab author, rate the tab!
1 2 3 4 5
comments
print report bad tab
guest
You may want to rate the tab now too:
select rating
Wanna post a correction for this tab? Suggest correction