Oops, an error
Loading. Please wait.

First Day Of My Life Tab

version 2
version 2

Whole song

Interactive

17,573 views 24 this week
2 commentsread comments
1 2 3 4 5
x 9
add to favorites
launch autoscroll
font size
0
reset
how to read this tab
guitar tuner
Autoscroll
slow
fast
+/-
esc
set tempo
stop
Help us to improve Ultimate-Guitar.com Take our survey!
×
"First day of my life"
The Rasmus
Transcribed by:8xXwarlockXx8

intro/main riff
|------------------------------------------------------------------------|
|------------------------------------------------------------------------|
|-66----------------66---------------------------------------------------|
|-66----------------66----------------77----------------77------99-------|
|-44-7777-9999-7777-44-7777-9999-6666-77-7777-9999-7777-77-7777-99-7777--|
|-------------------------------------55----------------55------77-------|

verse                                 x3    
|---------------------------------------|-------------------|
|---------------------------------------|-------------------|
|-66666666------------------------------|-------------------|
|-66666666-77777776-44444444-66666666---|-6-6-6-6-6---7-3-4-|
|-44444444-77777776-44444444-66666666---|-6-6-6-6-6---7-3-4-|
|----------55555554-22222222-44444444---|-4-4-4-4-4---5-1-2-|


chorus
|-----------------------------------------------------------|
|-----------------------------------------------------------|
|-----------9999-66--------------9999-77-6666----------9-8--|Goes into main
|-4444-9999-9999-66-33-4444-9999-9999-77-6666-4444-6-4-9-8--|riff.
|-4444-9999-7777-44-33-4444-9999-7777-55-4444-4444-6-4-7-6--|
|-2222-7777---------11-2222-7777--------------2222-4-2------|
                                                 PM. . . .

main riff

verse

chorus


bridge
(slower)
|------------------------------|
|------------------------------|
|------------------------------|
|-4----6----4----6----4----6---|
|-4----6----4----6----4----6---|
|-2----4----2----4----2----4---|


chorus


outro
|-----------------------------|
|-----------------------------|
|-----9-8-6---------9-8-------|
|-6-4-9-8-6-9-7-6-4-9-8-9-6---|
|-6-4-7-6-4-9-7-6-4-7-6-9-6---|
|-4-2-------7-5-4-2-----7-4---|

main riff


end on
|---------|
|---------|
|-6-6\\\\-|
|-6-6\\\\-|
|-4-4\\\\-|
|---------|
Suggest correction
comments
print report bad tab
2 comments total.
0 reply
man utd 10 Oct 26, 2004 12:00 AM

wrong i have the tab bok its way off

0 reply
valderonix 46 Aug 21, 2014 09:50 PM

Then make the right one and share with us :)

guest
You may want to rate the tab now too:
select rating
Wanna post a correction for this tab? Suggest correction