Oops, an error
Loading. Please wait.

Fool Tab

315 views 1 this week
no commentswrite comment
1 2 3 4 5
excellent!
x 2
add to favorites
launch autoscroll
font size
0
reset
how to read this tab
guitar tuner
Tab Pro tools
  • play this tab
  • loop segment
  • change instrument
  • show fretboard
  • metronome
Autoscroll
slow
fast
+/-
esc
set tempo
stop
Contributor
Artist : The Rasmus
Song : Fool
Album : Peep
Tab by: Beberasmus bebe_4048@hotmail.com

fUnNy SoNg!

Intro/Verse:x2
     ...............    .   .
E|------------------------------|
B|------------------------------|
G|-6------------------9---7---6-|
D|-6-6-6-6-6----------9---7---6-|
A|-4-4-4-4-4-7-7-7-7--7---5---4-|x3
E|-----------5-5-5-5----0---0---|
 .............
E|--------------------|
B|--------------------|
G|--------------4~-4~-|
D|-6-6-6-6-6-6--4~-4~-|
A|-4-4-4-4-4-4--2~-2~-|
E|--------------------|

Chorus:
E|----------------------------------|
B|----------------------------------|
G|-9-9-9-9--------------------------|
D|-9-9-9-9--6-6-6-6--7-7-7--9-9-9-9-|x4
A|-7-7-7-7--6-6-6-6--7-7-7--9-9-9-9-|
E|----------4-4-4-4--5-5-5--7-7-7-7-|

E|------------------------|   |----|
B|------------------------|   |----|
G|-6-6-6-6----------------|   |-6~-|      
D|-6-6-6-6--7-x-7-x-7-x-7-|x3 |-6~-|
A|-4-4-4-4--7-x-7-x-7-x-7-|   |-4~-|
E|----------5-x-5-x-5-x-5-|   |----|

Then:
E|---------------------------|
B|---------------------------|
G|-6-6-6-6-----------9-9-9-9-|
D|-6-6-6-6--7-7-7-7--9-9-9-9-|
A|-4-4-4-4--7-7-7-7--7-7-7-7-|x2
E|----------5-5-5-5----------|

Verse 2:x2
     ...............    .   .
E|------------------------------|
B|------------------------------|
G|-6------------------9---7---6-|
D|-6-6-6-6-6----------9---7---6-|
A|-4-4-4-4-4-7-7-7-7--7---5---4-|x3
E|-----------5-5-5-5----0---0---|
 .............
E|--------------------|-------|
B|--------------------|-------|
G|--------------4~-4~-|-8b-8b-|
D|-6-6-6-6-6-6--4~-4~-|-------|
A|-4-4-4-4-4-4--2~-2~-|-------|
E|--------------------|-------|

Chorus:
E|----------------------------------|
B|----------------------------------|
G|-9-9-9-9--------------------------|
D|-9-9-9-9--6-6-6-6--7-7-7--9-9-9-9-|x4
A|-7-7-7-7--6-6-6-6--7-7-7--9-9-9-9-|
E|----------4-4-4-4--5-5-5--7-7-7-7-|

E|------------------------|   |----|
B|------------------------|   |----|
G|-6-6-6-6----------------|   |-6~-|      
D|-6-6-6-6--7-x-7-x-7-x-7-|x3 |-6~-|
A|-4-4-4-4--7-x-7-x-7-x-7-|   |-4~-|
E|----------5-x-5-x-5-x-5-|   |----|

Then:
E|---------------------------|
B|---------------------------|
G|-6-6-6-6-----------9-9-9-9-|
D|-6-6-6-6--7-7-7-7--9-9-9-9-|
A|-4-4-4-4--7-7-7-7--7-7-7-7-|x2
E|----------5-5-5-5----------|

Solo:
E|--------------------------------------------------------------------|
B|--------------------------------------------------------------------|
G|-/6/8/9/11/13/16/18--/18\16\13\11\9\8\6--6/8/9/11/13\4-4/6-6--6p4-4-|
D|-/x/x/x/x-/x-/x-/x---/x-\x-\x-\x-\x\x\x--x/x/x/x-/x-\x-x/x-x--------|
A|-/4/6/7/9-/11/14/16--/16\14\11\9-\7\6\4--4/6/7/9-/11\2-2/4-4--------|
E|--------------------------------------------------------------------|

E|-12-12-12-12-11-11----------(11)-12-12-12-12-14-14-14--12-12-12-12-11-11--------------------|
B|--------------------14-14-14---------------------------------------------14-14-14-12-12-12b-|
G|--------------------------------------------------------------------------------------------|
D|--------------------------------------------------------------------------------------------|
A|--------------------------------------------------------------------------------------------|x2
E|--------------------------------------------------------------------------------------------|

Then:
E|------------------------|   |----|
B|------------------------|   |----|
G|-6-6-6-6----------------|   |-6~-|      
D|-6-6-6-6--7-x-7-x-7-x-7-|x3 |-6~-|
A|-4-4-4-4--7-x-7-x-7-x-7-|   |-4~-|
E|----------5-x-5-x-5-x-5-|   |----|

Chorus:
E|----------------------------------|
B|----------------------------------|
G|-9-9-9-9--------------------------|
D|-9-9-9-9--6-6-6-6--7-7-7--9-9-9-9-|x4
A|-7-7-7-7--6-6-6-6--7-7-7--9-9-9-9-|
E|----------4-4-4-4--5-5-5--7-7-7-7-|

E|------------------------|   |----|
B|------------------------|   |----|
G|-6-6-6-6----------------|   |-6~-|      
D|-6-6-6-6--7-x-7-x-7-x-7-|x3 |-6~-|
A|-4-4-4-4--7-x-7-x-7-x-7-|   |-4~-|
E|----------5-x-5-x-5-x-5-|   |----|

Please reate!
PEACE!
comments
We did not receive enough feedback on this tab! Please rate:
print report bad tab
1 2 3 4 5
I want to post or [tab]
guest
You may want to rate the tab now too:
select rating
Please do not post tabs as comments. Select "correction" instead!