Oops, an error
Loading. Please wait.

Funeral Song Chords

version 1
version 1

Whole song

Interactive

15,928 views 21 this week
3 commentsread comments
1 2 3 4 5
1 last vote to show rating
add to favorites
launch autoscroll
font size
0
reset
transpose
0
reset
display chords
guitar tuner
Autoscroll
slow
fast
+/-
esc
set tempo
stop
Help us to improve Ultimate-Guitar.com Take our survey!
×
The Rasmus  -  Funeral Song
Album: Dead Letters

This music is just wonderful, with an excellent lyric.
I love music and this group and Muse are my favourites. 

Riff1

e-------------------------------------------------------
A-------------------------------------------------------
D--12----8--10--12----10-----10-8-7-8----8-7-5-12------- 
G-------------------------------------------------------
B-------------------------------------------------------
E-------------------------------------------------------


Riff1 2x

Ab                        G
   I dumped you again.
Bbm                     C
   I dont understand.
Ab                        G
   Its happened before.
Bbm                     C
   Cant take it no more.


Ab                      G
   These foolish games.
Bbm                               C
   Always end up in confusion.
Ab                    G
   Ill take you back
                G
   Just to leave you once again.

                      Cm                Ab
        Chorus: I died in my dreams.
                                                            D#
                      Whats that supposed to mean?
                                              D#m
                      Got lost in the fire.
                      Cm                Ab
                      I died in my dreams.
                                                          D#
                      Reaching out for your hand

                   
                                      D#m
                       My fatal desire.


Riff1 2x  or  Cm - G - Ab - D# 


(The same chords as above)

Ive failed you again.
Cause I let you stay.
I used to pretend
that I felt OK.

Just one big lie,
Such a perfect illusion.
I made you mine
Just to hurt you once again


Don't do  the chord G as normal (320003), do as I wrote, is more simple to the chords coordenation.
Suggest correction
Give kudos to tab author, rate the tab!
1 2 3 4 5
comments
print report bad tab
3 comments total.
0 reply
man utd 10 Nov 11, 2004 12:00 AM

not even close

0 reply
Sirius197 15 Nov 11, 2005 10:05 PM

The intro is:

E-----------------------------------------------|--------------|
B-8-----------------------------------------8---|---------8--19|
G-----8--10--12----10-----10-8-7-8----8-7-5-----|-19-18-16-----|
D-----------------------------------------------|--------------|
A-----------------------------------------------|--------------|
E-----------------------------------------------|--------------|

In the chorus the D#m should be a Bb, and instead of Cm G Ab D#, those riffs should be Cm G Ab G

0 reply
Sirius197 15 Nov 11, 2005 10:06 PM

Like this, sorry

E-----------------------------------------------|--------------|
B-8-----------------------------------------8---|----------19--|
G-----8--10--12----10-----10-8-7-8----8-7-5-----|-19-18-16-----|
D-----------------------------------------------|--------------|
A-----------------------------------------------|--------------|
E-----------------------------------------------|--------------|

guest
You may want to rate the tab now too:
select rating
Wanna post a correction for this tab? Suggest correction