Oops, an error
Loading. Please wait.

Ghost Of Love Bass Tab

1,699 views 1 this week
no commentswrite comment
1 2 3 4 5
please rate
add to favorites
launch autoscroll
font size
0
reset
guitar tuner
Autoscroll
slow
fast
+/-
esc
set tempo
stop
Help us to improve Ultimate-Guitar.com Take our survey!
×
Author
The Rasmus- Artist
Black Roses- Album (2008)
Ghost Of Love- Song 

Intro has no bass, just piano.

Riff 1:
G|----------------|
D|-4--------------|
A|---4----------4-|
E|-----2--2-2-2---| 4x

Verse Riff (follow the vocal melody):
|-----------------------------------------|
|-----------------------------------------|
|-----------------------------------------|
|-7777-5555-4444-2222-7777-5555-4444-2222-| 2x

|-----------------------------------------|
|-----------------------------------------|
|-5555-4444-2222-0000---------------------|
|---------------------7777-5555-4444-2222-|

Chorus Riff:
|----------------2-----------------------------4-----------|
|-4----------------2------------2----------------4-----2-3-|
|---4----------4-----0--0-0-0-2---2----------------2-4-----|
|-----2--2-2-2----------------------0--0-0-0-4-------------| 2x

Play riff 1 twice here:
|----------------|
|-4--------------|
|---4----------4-|
|-----2--2-2-2---| 2x

Verse Riff:
|-----------------------------------------|
|-----------------------------------------|
|-----------------------------------------|
|-7777-5555-4444-2222-7777-5555-4444-2222-| 2x

|-----------------------------------------|
|-----------------------------------------|
|-5555-4444-2222-0000---------------------|
|---------------------7777-5555-4444-2222-|

Chorus Riff:
|----------------2-----------------------------4-----------|
|-4----------------2------------2----------------4-----2-3-|
|---4----------4-----0--0-0-0-2---2----------------2-4-----|
|-----2--2-2-2----------------------0--0-0-0-4-------------| 2x

Bridge:
|---------------------|
|---------------------|
|-5550-5550-5550-5010-|
|---------------------|

|-------------------------|   
|-------------------------|
|-10101010-8888-7777-5555-|    <--- these are 10's
|-------------------------|  3x

|-----------------------|
|-----------------------|
|-11111111-33333333-5~~-|
|-----------------------|

Small bass solo riff:
|------------|
|------------|
|-5-5-5-55-8-|   (listen closely for the timing)
|------------| 2x

Chorus Riff:
|----------------2-----------------------------4-----------|
|-4----------------2------------2----------------4-----2-3-|
|---4----------4-----0--0-0-0-2---2----------------2-4-----|
|-----2--2-2-2----------------------0--0-0-0-4-------------| 4x

Riff 1:
|----------------|
|-4--------------|
|---4----------4-|
|-----2--2-2-2---| 3x

And for the last notes:
|-------|
|-4-----|
|---4---|
|-----2-|

The End
Suggest correction
Give kudos to tab author, rate the tab!
1 2 3 4 5
comments
print report bad tab
guest
You may want to rate the tab now too:
select rating
Wanna post a correction for this tab? Suggest correction